Letras y Acordes |  Acordes |  Afinador |  IMC |  num A B C D E F G H I J K L M N O P Q R S T U V W X Y Z 
 

 

AQUEL QUE NOS AMO - Danilo Montero  

Links Patrocinados / Anuncios:

una_columnados_columnasaumentar_letrareducir_letravista_scrollver_impresionver_impresion_con_acordes | votar: ++++++---- | Puntaje actual: 6.00

Links Patrocinados

Links Patrocinados

calculadora de indice de masa corporal IMC

Links Patrocinados




Diccionario de Nombres
Les voy a enceñar a tocar esta cancion, esta bastante facil.

Intro:
G|-----------------------------------------
D|-----------------------------------------
A|---------3(2)----------------------------
E|---3(10)---------------------------------

Verso:la primera vez no toca despues entra
''aquel que nos amo, testigo...''
G|--------------------------------------------
D|--------------------------------------------
A|-------7(8)--3(8)--5(8)--------------------- x2
E|--3(8)--------------------------------------

Coro:
G|-------------------------------------------
D|-------------------------------------------
A|-------5(8)------3(8)------5(8)-3(8)-5(8)--
E|--3(8)------5(8)------3(8)-----------------

despues hace asi:
Verso
Coro x2

Puente:''siempre te amare...''
G|---------------------------------------
D|---------------------------------------
A|-7-7-5-55-3-3-3-5-5---7-7-5-55-3-33---- x2 y termina en D
E|---------------------------------------

Solo de guitarra: hace las notas del coro

termina con el coro x2


bueno esa es toda la cancion espero que les pueda ayudar
cualquier consulta/sugerencia este es mi mail
bassesmen@hotmail.com saludos de argentina!



Esta es una transcripcion personal de un usuario de www.letrasyacordes.net - El material contenido en esta pagina es para exclusivo uso privado, quedando prohibida su reproduccion o retransmision, asi como su uso con fines comerciales.


Letras y Acordes punto net, el mejor sitio para encontrar y compartir letras de canciones, con sus correspondientes acordes para guitarra y piano. No te olvides de votar para calificar la calidad de las letras
Palabras utilizadas para encontrar esta página:
Danilo Montero, AQUEL QUE NOS AMO, letra y acordes de AQUEL QUE NOS AMO de Danilo Montero, canciones de Danilo Montero, tocar con guitarra AQUEL QUE NOS AMO, tocar con piano AQUEL QUE NOS AMO, estudiar música
Ver más canciones de :

Danilo Montero


 
{c} 2016 - letrasyacordes.net