Letras y Acordes |  Acordes |  Afinador |  IMC |  num A B C D E F G H I J K L M N O P Q R S T U V W X Y Z 
 

 

NO DEJES QUE || Caifanes  

Links Patrocinados / Anuncios:

una_columnados_columnasaumentar_letrareducir_letravista_scrollver_impresionver_impresion_con_acordes | votar: ++++++---- | Puntaje actual: 6.36

Links Patrocinados

Links Patrocinados

calculadora de indice de masa corporal IMC

Links Patrocinados





ACORDES:> RE LA SOL MI SI FA

Esta rola se la quiero dedicar a la chava  que me ha hecho sufrir
 mas pero que me ha inspirado a seguir en la musica.
En fin aquí les mando la tab de  no dejes que por lo regular
 solo se utiliza en versos y coros, notas de  un  medio de
 tiempo o medio tiempo.
esta algo difícil por los tiempos péro es cuestion de que la escuches.
 No te preocupes es de las rolas que me han salido casi exactas

No dejes que

INTRO
La guitarra hace siete compases y esto va después del tarolazo
G||----------|
D||----7-----|
A||----------|
E||---5-5----|

Verso 1
aquí entran todos los instrumentos
G||----------|----------|----------|----------||
D||----------|----------|-----2---2|------2---|| X 2 veces
A||5---5-----|------5---|----------|----------||
E||-----5---5|3---3----3|5---5-----|5---5---5-||

G||----------|----------|----------|----------||
D||----------|----------|-----2---2|------2---||  X 2 veces
A||-----4----|-----5----|----------|----------||
E||2---2----2|3---3----5|5---5-----|5---5---5-||

G||----------|----------|----------|----------||
D||----------|----------|-----2---2|------2---|| X 2 veces
A||5---5-----|------5---|----------|----------||
E||-----5---5|3---3----3|5---5-----|5---5---5-||

G||----------|----------|----------|----------||
D||----------|----------|-----2---2|------2---||  X 2 veces
A||-----4----|-----5----|----------|----------||
E||2---2----2|3---3----5|5---5-----|5---5---5-||

Coro
    y no se por que no me importa
G|--------------------------------|
D|--------------------------------|
A|--3---32----32-----5--5------5-5|
E|--------53----53--3----3---3----|

    Saber  porque  no  dejes que
G|---------------------------------------------|
D|---------------------------------------------|
A|--3---32----32-----5--5------5--5------------|
E|--------53----53--3----3---3-----3-3-3-3-33--|









G||----------|----------|----------|----------|----------|
D||-----2---2|------2---|-----4--4-|------4---|----------|
A||----------|----------|2---2-----|2---2---2-|3-3-3-3-33|
E||5---5-----|5---5---5-|----------|----------|----------|

G||----------|----------|----------|----------|----------|
D||----------|----------|-----2---2|----------|-----4---4|
A||-----5---5|------5---|----------|------2---|2---2-----|
E||3---3-----|3---3---3-|5---5-----|5---5---5-|----------|


G||----------|----------|
D||----------|----------|
A||------4---|3-3-3-3-33|
E||2---2---2-|----------|

ENTONCES QUEDA
Intro
verso
coro
verso
coro
solo de  guitarra se toca lo mismo que en verso
coro
y despues entra otro coro que va apartir de


G||----------|----------|----------|----------|----------|
D||----------|----------|-----2---2|----------|-----4---4|
A||-----5---5|------5---|----------|------2---|2---2-----|
E||3---3-----|3---3---3-|5---5-----|5---5---5-|----------|


G||----------|----------|----------|
D||----------|----------|----------|
A||------4---|3-3-3-3-33|----------|
E||2---2---2-|----------|-(3)------|

Si tienes alguna duda  o comentario escribeme a
 gushs_jag@yahoo.com.mx o si nesesitas alguna tab
 de rock en español solo gritame.





Esta es una transcripcion personal de un usuario de www.letrasyacordes.net - El material contenido en esta pagina es para exclusivo uso privado, quedando prohibida su reproduccion o retransmision, asi como su uso con fines comerciales.


Letras y Acordes punto net, el mejor sitio para encontrar y compartir letras de canciones, con sus correspondientes acordes para guitarra y piano. No te olvides de votar para calificar la calidad de las letras
Palabras utilizadas para encontrar esta página:
Caifanes, NO DEJES QUE, letra y acordes de NO DEJES QUE de Caifanes, canciones de Caifanes, tocar con guitarra NO DEJES QUE, tocar con piano NO DEJES QUE, estudiar música
Ver más canciones de :

Caifanes


 
{c} 2016 - letrasyacordes.net