Letras y Acordes |  Acordes |  Afinador |  IMC |  num A B C D E F G H I J K L M N O P Q R S T U V W X Y Z 
 

 

No Dejes Que || Caifanes  

Links Patrocinados / Anuncios:

una_columnados_columnasaumentar_letrareducir_letravista_scrollver_impresionver_impresion_con_acordes | votar: ++++++---- | Puntaje actual: 6.19

Links Patrocinados

Links Patrocinados

calculadora de indice de masa corporal IMC

Links Patrocinados





así empieza esta rola:

------------------------------------------------------------------------14-12-10-10-
-5/7--7/5--7/8------------7-5-7-5/3--5/7/5-8--8/10--10/12--12/14-14-12--------------
--------------6-7-6-3-2-2-----------------7---------------------------14------------
------------------------------------------------------------------------------------
------------------------------------------------------------------------------------
------------------------------------------------------------------------------------

y esto es el solo, difrutenlo:

e-----10------------10--12/14---14-14-14-12-10-10-10--9--9--9-7-7-7-5-5-5-3-2-3/5-5-5------
b-------10--------10--10-----------------------------10-10-10-9-9-9-7-7-7-5-3-5/7-7-7-5-7-7
g-9/11----11-9--11-------------------------------------------------------------------------
d-------------12---------------------------------------------------------------------------

e---------------------------------------------7-7-7-7-7/9--9--9--7-7-7-5-5-5-5-3-2-2--9-9---9-9-9-9-9
b-7-7-5-3-3/1-1-2-1/0-2-1/0--2-3-2-----5-5----8-8-8-8-8/10-10-10-8-8-8-7-7-7-7-5-3-------7-7---7---7-
g-7-7-6-4-4/2-2------2-----2------3--6----6-7--------------------------------------------------------
d----------------------------------4-----------------------------------------------------------------

e-5-5-5-5-5/7-7-7-7-7-7-7/9--9--9--12¨¨
b-7-7-7-7-7/8-8-8-8-8-8-8/10-10-10-----
g--------------------------------------
d--------------------------------------

bueno, es muy facil y mas vuando tienes a alguienque te inspire.
esta rola se la dedico a carolina con todo mi amor...





Esta es una transcripcion personal de un usuario de www.letrasyacordes.net - El material contenido en esta pagina es para exclusivo uso privado, quedando prohibida su reproduccion o retransmision, asi como su uso con fines comerciales.


Letras y Acordes punto net, el mejor sitio para encontrar y compartir letras de canciones, con sus correspondientes acordes para guitarra y piano. No te olvides de votar para calificar la calidad de las letras
Palabras utilizadas para encontrar esta página:
Caifanes, No Dejes Que, letra y acordes de No Dejes Que de Caifanes, canciones de Caifanes, tocar con guitarra No Dejes Que, tocar con piano No Dejes Que, estudiar música
Ver más canciones de :

Caifanes


 
{c} 2016 - letrasyacordes.net