Letras y Acordes |  Acordes |  Afinador |  IMC |  num A B C D E F G H I J K L M N O P Q R S T U V W X Y Z 
 

 

Nos Vamos Juntos - Caifanes  

Links Patrocinados / Anuncios:

una_columnados_columnasaumentar_letrareducir_letravista_scrollver_impresionver_impresion_con_acordes | votar: ++++++---- | Puntaje actual: 6.00

Links Patrocinados

Links Patrocinados

calculadora de indice de masa corporal IMC

Links Patrocinados




Diccionario de Nombres



INTRO

G-----------------------------------------|
D-----------------------------------------|
A-2-2-2-2-2-2-2-2-2-2-2-2-2-2-2-2-2-2-2-2-|
E-----------------------------------------|

este intro es muy suave, no se cuantas veces
lo hace, hasta el remate de la bateria...


G-----------------------------------------|
D---(este es a contra)--------------------|
A-----------2------------/7-------2-4-----|
E-0--------------------------3-5------0-0-|

             nos vamos juntos haciendo
G-----------------------------------------|
D-----------------------------------------|
A--/7-----2-4----------------5-5----------|
E-----3-5--------0-0--0-0--0-----0-0--0-0-|

 viejos, algunos sueños toda la piel
G-----------------------------------------|
D-----------------------------------------|
A--5-5------------------------------------|
E------3-3-3-3-3-3-3--/10--7-5-0-0--0-0-3-|

 mordiendo el tiempo lam...  nos buscamos
G-----------------------------------------|
D-----------------------------------------|
A---2-4---------5-5----------5-5----------|
E-5-----0-0-0-0-----0-0--0-0-----3-3-3-3-3|

para evitarnos              y sin embargo
G-----------------------------------------|
D-----------------------------------------|
A---------------------------------------2~|
E--/10--7-5-0-0-0-0-0-0-5-3-1~------------|

 y sin embargo no me voy
G-----------------------------------------|
D-----------------------------------------|
A---------------------2~------------------|
E-1~--------------------------------------|


G-----------------------------------------|
D-----------------------------------------|
A-2-2-2-2-2-2-2-2-2-2-2-2-2-2-2-2-2-2-2-2-|
E-----------------------------------------|

G-----------------------------------------|
D---(este es a contra)--------------------|
A-----------2------------/7-------2-4-----|
E-0--------------------------3-5------0-0-|

                 vivimos jutnos
G-----------------------------------------|
D-----------------------------------------|
A--/7-----2-4----------------5-5----------|
E-----3-5--------0-0--0-0--0-----0-0--0-0-|

        en mentiras
G-----------------------------------------|
D-----------------------------------------|
A--5-5------------------------------------|
E------3-3-3-3-3-3-3--/10--7-5-0-0--0-0-3-|

       juntos buscamos...   despues de amarnos
G-----------------------------------------|
D-----------------------------------------|
A---2-4---------5-5----------5-5----------|
E-5-----0-0-0-0-----0-0--0-0-----3-3-3-3-3|

                           y sin embargo aqui..
G-----------------------------------------|
D-----------------------------------------|
A-----------------------------------2~----|
E--/10--7-5-0-0-0-0-0-0-5-3-1~------------|

           y sin embargo no me voy...
G-----------------------------------------|
D------9-7--------------------------------|
A-/7-7----------2~------------------------|
E-----------1~----------------------------|

 me vooooooooooooy yendooooooooooo como el mar,
G-----------------------------------------|
D-----------------------------------------|
A-----------------------------------2-2-2-|
E-3-3-3-3-3-3-3-3-3-5-5-5-5-5-5-5-5-------|

           lento y salvaje     como
G-----------------------------------------|
D-----------------------------------------|
A-2-2-2-2-2-------------------------------|
E-----------3-3-3-3-3-3-3-3-5-5-5-5-5-5-5-|

   tu...         me voooooooooooooyyy yendo
G-----------------------------------------|
D-----------------------------------------|
A---2-2-2-2-2-2-2-2-----------------------|
E-5-----------------3-3-3-3-3-3-3-3-5-5-5-|

           como el mar     lento y salvaje
G-----------------------------------------|
D-----------------------------------------|
A-----------2-2-2-2-2-2-2-2---------------|
E-5-5-5-5-5-----------------3-3-3-3-3-3-3-|

                  como tu....
G-----------------------------------------|
D-----------------------------------------|
A-------------------2-2-2-2-2-2-2-2-------|
E-3-5-5-5-5-5-5-5-5------------------0-0--|

vamos a abraza.. vamos a olvidarnos ..
G-----------------------------------------|
D-----------------------------------------|
A-----5-5-----5-5-------------------------|
E-0-0-----0-0-----3-3-3-3-3-3-3-0-0--0-0--|

          vayamos juntos haciendo versos
G-----------------------------------------|
D-----------------------------------------|
A------2-4--------------------------------|
E--3-5-----0-0-0-0-0-0-0-0-0-0------------|

 yo te dare mis ojos para q llores...
G-----------------------------------------|
D-----------------------------------------|
A-----------------------------------------|
E-3-3-3-3-3-3-3-3-3-3-3-3--0-0-0-0-0-0-0--|

 me vooooooooooooy yendooooooooooo como el mar,
G-----------------------------------------|
D-----------------------------------------|
A-----------------------------------2-2-2-|
E-3-3-3-3-3-3-3-3-3-5-5-5-5-5-5-5-5-------|

           lento y salvaje     como
G-----------------------------------------|
D-----------------------------------------|
A-2-2-2-2-2-------------------------------|
E-----------3-3-3-3-3-3-3-3-5-5-5-5-5-5-5-|

   tu...         me voooooooooooooyyy yendo
G-----------------------------------------|
D-----------------------------------------|
A---2-2-2-2-2-2-2-2-----------------------|
E-5-----------------3-3-3-3-3-3-3-3-5-5-5-|

           como el mar     lento y salvaje
G-----------------------------------------|
D-----------------------------------------|
A-----------2-2-2-2-2-2-2-2---------------|
E-5-5-5-5-5-----------------3-3-3-3-3-3-3-|

                  como tu....
G-----------------------------------------|
D-----------------------------------------|
A-------------------2-2-2-2-2-2-2-2-------|
E-3-5-5-5-5-5-5-5-5-----------------------|

 me vooooooooooooy yendooooooooooo como el mar,
G-----------------------------------------|
D-----------------------------------------|
A-----------------------------------2-2-2-|
E-3-3-3-3-3-3-3-3-3-5-5-5-5-5-5-5-5-------|

           lento y salvaje     como
G-----------------------------------------|
D-----------------------------------------|
A-2-2-2-2-2-------------------------------|
E-----------3-3-3-3-3-3-3-3-5-5-5-5-5-5-5-|

   tu...         aaaaaaaaaahhhhhhhhhh
G-----------------------------------------|
D-----------------------------------------|
A---2-2-2-2-2-2-2-2-----------------------|
E-5-----------------3-3-3-3-3-3-3-3-5-5-5-|

        aaaaaaaaaaaaaaahhhhhhhhhhh
G-----------------------------------------|
D-----------------------------------------|
A-----------2-2-2-2-2-2-2-2---------------|
E-5-5-5-5-5-----------------3-3-3-3-3-3-3-|

        aaaaaaaaaaaaaahhhhhhhhhhh
G-----------------------------------------|
D-----------------------------------------|
A-------------------2-2-2-2-2-2-2-2-------|
E-3-5-5-5-5-5-5-5-5-----------------------|

        aaaaaaaaaaaaahhhhhhhhhhhh
G-----------------------------------------|
D-----------------------------------------|
A-----------------------------------2-2-2-|
E-3-3-3-3-3-3-3-3-3-5-5-5-5-5-5-5-5-------|


Espero q les guste, pueden meterle de lo suyo,
pueden jugar con el E de la sexta cuerda
metiendo un B en la quita cuerda de vez en cuando
se oye q hace eso...la letra de la rola no es
exactamente en donde se toca, oigan la grabacion
sale Miriam... concedida tu peticion...=)

si van a usar esta tab para algun lugar avisenme
no sean ****gandallas***** y si buscan un
guitarrista ando en busca de banda =)

cualquier sugerencia comentario o anecdota
a mi mail jcd_007@hotmail.com





Esta es una transcripcion personal de un usuario de www.letrasyacordes.net - El material contenido en esta pagina es para exclusivo uso privado, quedando prohibida su reproduccion o retransmision, asi como su uso con fines comerciales.


Letras y Acordes punto net, el mejor sitio para encontrar y compartir letras de canciones, con sus correspondientes acordes para guitarra y piano. No te olvides de votar para calificar la calidad de las letras
Palabras utilizadas para encontrar esta página:
Caifanes, Nos Vamos Juntos, letra y acordes de Nos Vamos Juntos de Caifanes, canciones de Caifanes, tocar con guitarra Nos Vamos Juntos, tocar con piano Nos Vamos Juntos, estudiar música
Ver más canciones de :

Caifanes


 
{c} 2016 - letrasyacordes.net