Letras y Acordes |  Acordes |  Afinador |  IMC |  num A B C D E F G H I J K L M N O P Q R S T U V W X Y Z 
 

 

ROCANROLES SIN DESTINO || Callejeros  

Links Patrocinados / Anuncios:

una_columnados_columnasaumentar_letrareducir_letravista_scrollver_impresionver_impresion_con_acordes | votar: ++++++++-- | Puntaje actual: 8.33

Links Patrocinados

Links Patrocinados

calculadora de indice de masa corporal IMC

Links Patrocinados





Rocanroles sin destino

El bajo entra cuando dice â€śY ese drogadicto alarido…”, tirando unas notas
tĂłnicas que a veces son distintas a las que hace la guitarra.
En negrita van las tonicas, las notas pegadas son los arreglos

G|----------------------------------------------------------------------
D|---------------------------------------------------------------5-3-2--
A|---5--------------3-----5---------------------------6—10---3-3--------
E|----—--3---5---6------------3---5---6---1---5---6---------------------

Entra con el corte (1:50)
G|----------------------------------------------------------------------
D|-----------------------7-8-9-8-7--------------------------------------
A|------------5x---3x---8----------10-----------------------------------
E|--1x---3x-------------------------------------------------------------

Te llaman si convocas…
G|----------------------------------------------------------------------
D|-----------5-3-2------5-3-2-------7-5--------7-5----------------------
A|-------3--3-------3--3--------5--5----8--5--5----8—--1x--3-5----------
E|--1x----------------------------------------------------------6-------

Muchas bandas…
G|----------------------------------------------------------------------
D|-----------5-3-2------5-3-2---------------------------5-5-3-----------
A|-------3--3-------3--3------------8-6-5------5x---3x------------------
E|--1x-------------------------6x-----------3x--------------------------

Y ahĂ­ caes en la cuenta…
G|----------------------------------------------------------------------
D|---------------------------------------------2-3-5--2-3-5-3-2--------
A|------8-6-5---8x—3x-5x--------3x----------3-3------3-----------------
E|--6x--------------------6x—1x-----6x—1x------------------------------

Y ese estruendo…
G|----------------------------------------------------------------------
D|-----------------2-3-5—-2-3-5-3-2-------------------------------------
A|--5x----------3-3------3------------5x----------8x--------------------
E|----—3x-5x-6x-------------------------—3x-5x-6x-----------------------

De vivir…
G|----------------------------------------------------------------------
D|---------------5-6-8----------5-3-2-----------------------------------
A|----------6x-6------------3x------------------------------------------
E|---5x—6x--------------3x----------------------------------------------

Pudieron reĂ­r sin llorar… (3:38)            x2 (esta parte nomás)
G|---------------------2-3-5---2-3-5-3-2-- ----------------------
D|---------------------------3------------ ----------------------
A|-----------5x—3x---3-------------------- ------8-7-5--5----—---
E|--1x---3x------------------------------- ---1x------8---8------

Aclaraciones:
X= varias veces
Espero que les sirva, hay partes que quizás no les suene porque hace
distinta nota que la viola, pero fijense que el bajo hace estas notas
que puse. Dudas gonza_mari4@hotmail.com. Aguante Callejeros!
Dios le pone un ritmo bárbaro





Esta es una transcripcion personal de un usuario de www.letrasyacordes.net - El material contenido en esta pagina es para exclusivo uso privado, quedando prohibida su reproduccion o retransmision, asi como su uso con fines comerciales.


Letras y Acordes punto net, el mejor sitio para encontrar y compartir letras de canciones, con sus correspondientes acordes para guitarra y piano. No te olvides de votar para calificar la calidad de las letras
Palabras utilizadas para encontrar esta página:
Callejeros, ROCANROLES SIN DESTINO, letra y acordes de ROCANROLES SIN DESTINO de Callejeros, canciones de Callejeros, tocar con guitarra ROCANROLES SIN DESTINO, tocar con piano ROCANROLES SIN DESTINO, estudiar mĂşsica
Ver más canciones de :

Callejeros


 
{c} 2016 - letrasyacordes.net