Letras y Acordes |  Acordes |  musica y amigos |  Afinador | 
 
num  A  B  C  D  E  F  G  H  I  J  K  L  M  N  O  P  Q  R  S  T  U  V  W  X  Y  Z  

 

Como el agua - Camarón de la Isla  

Links Patrocinados / Anuncios:

una_columnados_columnasaumentar_letrareducir_letravista_scrollver_impresionver_impresion_con_acordes | votar: ++++++---- | Puntaje actual: 6.13

Links Patrocinados

Links Patrocinados

calculadora de indice de masa corporal IMC

Links Patrocinados




Diccionario de Nombres



Envio debido a los e-mail recibido, una edición mejorada de Como el agua


Tangos
Cejilla en 2

Acordes:
Si: -24442
Do 1: -35553
Do 2: -32010
Sib*: -10330
Re:-54232

Una pequeña introducción, que cambia en las distintas versiones:

e:------------------------------------------------
B:------------------------------------------------
G:-----------4---------5--------4-------5---------
D:-----------4---------5--------4-------5---------
A:---0-3-0-2-2---0-2-3-3--0-1-2-2—0-2-3-3---------
E:------------------------------------------------

e:-------------------------------------------------------------
B:-------------------------------------------------------------
G:--------4-/5-5--5-7-5-7-5-4---4-5-/7-5-4-5-4---4-------------
D:-/4-5-7---------------------7----------------7---7-6------
A:-------------------------------------------------------------
E:-------------------------------------------------------------

e:-4-4-1-0--4-4-1-4-1-4-1-0------------------------------------
B:-------------------------------------------------------------
G:-----------------------------------5-----4---SI---------------
D:-----------------------------------5-----4-------------------
A:---------------------------0^2-0^2-3-0-1-2------------------
E:-------------------------------------------------------------


Si(jugando con los bajos: Si, Do, La)

e:-------------------------
B:-------------------------
g:----------------------...
d:-------4-----------------
A:-2-3-0-2--0-0-2-3-0-2----
E:-------------------------

Si
Limpio del agua del río

como la estrella de la mañana
Do 1
limpio del cariño mío

manantial de tu fuente clara

         Re          Do 2         Sib*    Si
Como el agua, como el agua, como agua...

Do 1
Como el agua clara,
                Si
que baja del monte
Do 1
así quiero verte
                Si
de día y de noche.

          Re           Do        Sib*     Si
Como el agua, como el agua, como agua...


Si
Yo te eché mi brazo al hombro
                       DO
y un brillo de luz de luna
              Re  Do    Sib*    Si
iluminaba tus ojoooooooooooooooos.


Re
De ti deseo yo toíto el calor
                          Do
pa ti mi cuerpo si lo quieres tu
                            Re       2 Golpes
fuego en la sangre nos corre a los dos...

          Re           Do        Sib*    Si
Como el agua, como el agua, como agua...


Si
Si tus ojiyos fueran
aceitunitas verdes
Do
to la noche estaría

muele que muele

muele que muele
Re            Do
to la noche estaría
Sib*
muele que muele
Si
muele que muele

Luz del alma mía divina
que a mi me alumbra mi corazón
mi cuerpo alegre camina
porque de ti tiene la ilusión.


Comentarios a kabello°mixmail.com





Esta es una transcripcion personal de un usuario de www.letrasyacordes.net - El material contenido en esta pagina es para exclusivo uso privado, quedando prohibida su reproduccion o retransmision, asi como su uso con fines comerciales.


Articulo Destacado: Mantenimiento de la Guitarra - Cuidados Generales

 

 
fuente
 
Letras y Acordes punto net, el mejor sitio para encontrar y compartir letras de canciones, con sus correspondientes acordes para guitarra y piano. Registrate en nuestro foro y enterate cómo agregar tus propias transcripciones. No te olvides de votar para calificar la calidad de las letras
Palabras utilizadas para encontrar esta página:
Camarón de la Isla, Como el agua, letra de Como el agua de Camarón de la Isla, letras, letra, acordes, canciones, letras de cancion, lyrics, cancion, grupo, banda, cantante, tablatura, partitura, tocar con guitarra, tocar con piano, tocar con bajo, armónica, teclado, bajo, ejecutar, estudiar música
Ver más canciones de :

Camarón de la Isla


 
{c} 2007 / 2011 - letrasyacordes.net