Letras y Acordes |  Acordes |  Afinador |  IMC |  num A B C D E F G H I J K L M N O P Q R S T U V W X Y Z 
 

 

DULCE INTRODUCCION AL CAOS || Extremoduro  

Links Patrocinados / Anuncios:

una_columnados_columnasaumentar_letrareducir_letravista_scrollver_impresionver_impresion_con_acordes | votar: ++++------ | Puntaje actual: 4.67

Links Patrocinados

Links Patrocinados

calculadora de indice de masa corporal IMC

Links Patrocinados


Aquí teneis la tablatura completa,
porque todas las que he encontrado están a mitad.
Yo lo toco así y me suena bien. Si teneis alguna duda,
soy manuel_92mgs@hotmail.com



ARPEGIO PRINCIPAL

/--------------------------
/--------------------------
/----0-----0-----0-----0---
/---0-0---0-0---2-2---0-0--
/--2---2-0---0-0---0-0---0-
/-3-----2-----0-----2------
    DO    FA#    MI   FA#

La primera guitarra hace básicamente eso durante
la primera parte de la canción.


Esto va cada vez que dice
"La canción de que el tiempo/viento...":
/----------------------
/----------------------
/----------------------
/-5--7--9--7---5-------
/-3--5--7--5---3-------
-----------------------
  X6 X6 X6 X6

  01:59
/----------------------
/----------------------
/---5------------------
/--5--5-5-5-5-5-5-5-5-5
/-----3-3-3-3-3-3-3-3-3
/---------------------- ...

ahora SOL FA# MI FA# y a la vez
/--------------------------------
/-------15~-------15-------------
/-16-17-----16-17----17-16-------
/--------------------------19-17- x4
/--------------------------------
/--------------------------------

Durante el solo se repite
eso Ãºltimo que hemos tocado.

Solo (2:25):
/-----------------------------------------------
/-----------------------------------------------
/-------12-14b16-12~-11-12-12b14-12-11-------------
/-12--12------------------------------14-12b14-12-
/---14------------------------------------------
/-----------------------------------------------

/-------------------------------------------12-14-15-
/----------------------------------12-13-15----------
/--------------------------11-12-14------------------
/--------------------12-14---------------------------
/-14--12-12b14---12----------------------------------
/---15---------15------------------------------------

"mientras tanto pasan las horas..."
/--17b19-15---20b22-17-19-17-15-14---14-15-------------------
/----------------------------------17------------------------
/----------17-----------------------------17---11-12-14------
/-------------------------------------------17---------12-10-
/------------------------------------------------------------
/------------------------------------------------------------

/-------------------------------------
/--------15~-----------------------------
/-----12----16-17-19-17-16-14-12-12~~-
/---12--------------------------------
/-14----------------------------------
/-------------------------------------

Se repite el ARPEGIO PRINCIPAL



"se rompió la cadena que ataba el reloj a las horas..."
      SOL                 FA#                   MI      DO RE

"se paró el aguacero ahora somos flotando dos gotas..."
      SOL                   FA#                  MI     DO RE

"agarrado un momento a la cola del viento me siento mejor..."
       DO                    RE          MI            DO

"me olvidé de poner en el suelo los pies y me siento mejor..."
       DO                    RE          MI             DO

"volar... volar"
   DO       RE


2º Solo (4:02):

/---------------------------15-14-15-----
/---------15-13-13-17-15-15---------15---
/----14-14----------------------------16-
/-17-------------------------------------
/----------------------------------------
/----------------------------------------

/-----------------------------------------------
/--------13-15-17-15p17h15-13-------------------
/---14-16--------------------16-14-16--------14-
/-17---------------------------------17-16-17---
/-----------------------------------------------
/-----------------------------------------------

/-------------------------------------------------
/-------------------------------15-13-13-17-15-15-
/-----14-16p17-16-14-16---14-14-------------------
/---16-----------------17-------------------------
/-17----------------------------------------------
/-------------------------------------------------

/-15-14-15---------------------------------------
/---------15---------13-15-13--------------------
/-----------16--14-16--------16-14---------------
/-------------17-------------------17--17-16-17~-
/------------------------------------17----------
/------------------------------------------------

Sobre el ARPEGIO PRINCIPAL:

/------------------------------------------
/-12-13b15-10-10----------13-15-13-15b17-15-12----------------
/---------------12-12------------------------
/------------------------------------------
/------------------------------------------
/------------------------------------------

/-------------------15-17b19-17-15-17-
/-12-12-13-15-15-17-------------------
/-------------------------------------
/-------------------------------------
/-------------------------------------
/-------------------------------------

/---------------------------------------
/-12-13-15-13-15-17-15-13-15-13-13-12---
/------------------------------------12-
/---------------------------------------
/---------------------------------------
/---------------------------------------

/-----------------------------------
/-----------------------------------
/-----------------------------------
/--5-5-5-5-5-5-5-5-5-5-5-5-5-5-5-5--
/--3-3-3-3-3-3-3-3-3-3-3-3-3-3-3-3--
/----------------------------------- ...
  Empezamos con PM y vamos abriendo

 "Ya no queda una piedra en pie, porque el viento lo derribó"
                 MI        RE      MI          RE

"No, no hay esa canción"
 LA   DO

/-----------------------------------
/-----------------------------------
/-----------------------------------
/-----------------------------------
/------7-5--------9--------------------
/-5-7-8---8-7-8-10--------------------------

repetimos todo eso 2 veces.


Durante el solo:
/-----------------------------
/-----------------------------
/-------9-------7-------5-----
/-------9-------7-------5-5-7-
/-7-7-7-7-5-5-5-5-3-3-3-3-5-7-
/-------------------------3-5-

/-----------------------
/-----------------------
/-------9-------7-------
/-------9-------7--7-9--
/-7-7-7-7-5-5-5-5--7-9--
/------------------5-7--


3er Solo (5:07):
/----------------------------------------------
/-----12----12----12----15-13-12------------12-
/---12----12----12----12--------14-12-11-12----
/-14----14----14----14-------------------------
/----------------------------------------------
/----------------------------------------------

/------------------------------------
/------------------------------------
/---11-12--11-12--11-14-12-11--11-12-
/-14-----14-----14-----------14------
/------------------------------------
/------------------------------------

/-------------------------------------------
/---------12----12----15-13-12--------------
/-------12----12----12--------14-12-11-12---
/-----14----14----14------------------------
/-------------------------------------------
/-------------------------------------------

/--------------------------------------12-15-12-
/-----------------------------12-13-15----------
/---11-12--11-12------11-12-14------------------
/-14-----14------12-14--------------------------
/----------------------------------------------
/----------------------------------------------

Repetimos otras dos veces lo que habíamos hecho antes,
lo de "ya no queda una piedra en pie..."

Durante el "no!! no!!" tocamos lo siguiente:
/-----------------------------
/-----------------------------
/-------9-------7-------5-----
/-------9-------7-------5-5-7-
/-7-7-7-7-5-5-5-5-3-3-3-3-5-7-
/-------------------------3-5-

/-----------------------
/-----------------------
/-------9-------7-------
/-------9-------7--7-9--
/-7-7-7-7-5-5-5-5--7-9--
/------------------5-7--

Eso sigue sonando durante el solo

4º Solo (6:07):
/-----------------------------------------
/-----------------------------------------
/--------------------7--------------------
/-9-----7--------------10-9h10p9-7--------
/---9-10--7-9-10--7-9-------------10-9-10-
/-----------------------------------------

/-----------------------------------
/-----------------------------------
/-----------------------------------
/-----------------------------------
/-7-9-10--9-10----------------------
/-------------10-7-5-3-5-3-7--------

/-----------------------------------------
/-----------------------------------------
/--------------------7--------------------
/-9-----7--------------10-9h10p9-7--------
/---9-10--7-9-10--7-9-------------10-9-10-
/-----------------------------------------

/-----------------------------------
/-----------------------------------
/-----------------------------------
/-----------------------------------
/-7-9-10--9-10~-10~-----------------
/-------------------/0--------------

esto engancha con el quinto solo,
en el que sigue la misma base rítmica

5º Solo (06:28)
/-------------------------------------------
/-------------------12--12-15b17-12---------
/-14b16-12-11-12-14---14-----------14-12-14-
/-------------------------------------------
/-------------------------------------------
/-------------------------------------------

/-12-14-14b15-16b17-----------------
/-----------------------------------
/-----------------------------------
/-----------------------------------
/-----------------------------------
/-----------------------------------

/-----------------------------------
/------12-15-----12-15-----12-15----
/-14b16-----14b16-----14b16---------
/-----------------------------------
/-----------------------------------
/----------------------------------- ....

esto ultimo en realidad es una octava más agudo,
pero si tu guitarra tiene solo 20 o 21 trastes,
no puedes hacerlo, yo lo hago asi, que suena bien.

/-----------18^---------------------
/-15^^-17^^-------------------------
/-----------------------------------
/-----------------------------------
/-----------------------------------
/-----------------------------------

outro(6:48):
/-12--------------------------------
/---12--10-12-----------------------
/-----12-----9-11-12----------------
/-------------------10-9------------
/-----------------------------------
/-----------------------------------

dos veces

---------------------
---------------------
-9-------------------
--9-----9-------------
---10-12----9-10-----
----------12-----9---

esto va 3 veces y ale se terminó.
Pedazo disco La ley innata, el mejor que han sacado.
Lo dicho, algo a: manuel_92mgs@hotmail.com
espero que os ayude.



Esta es una transcripcion personal de un usuario de www.letrasyacordes.net - El material contenido en esta pagina es para exclusivo uso privado, quedando prohibida su reproduccion o retransmision, asi como su uso con fines comerciales.


Letras y Acordes punto net, el mejor sitio para encontrar y compartir letras de canciones, con sus correspondientes acordes para guitarra y piano. No te olvides de votar para calificar la calidad de las letras
Palabras utilizadas para encontrar esta página:
Extremoduro, DULCE INTRODUCCION AL CAOS, letra y acordes de DULCE INTRODUCCION AL CAOS de Extremoduro, canciones de Extremoduro, tocar con guitarra DULCE INTRODUCCION AL CAOS, tocar con piano DULCE INTRODUCCION AL CAOS, estudiar música
Ver más canciones de :

Extremoduro


 
{c} 2016 - letrasyacordes.net