Letras y Acordes |  Acordes |  Afinador |  IMC |  num A B C D E F G H I J K L M N O P Q R S T U V W X Y Z 
 
´╗┐
 

PAISAJE || Gilda  

Links Patrocinados / Anuncios:

una_columnados_columnasaumentar_letrareducir_letravista_scrollver_impresionver_impresion_con_acordes | votar: ++++++---- | Puntaje actual: 6.00

Links Patrocinados

Links Patrocinados

calculadora de indice de masa corporal IMC

Links Patrocinados


INTRODUCCION:

   Dm                      C
e|-------------------------------------|
b|-------------------------------------|
g|-----------2-----------2-------------|
D|-0-0-0-0-3---0-0-0-0-3-----------2-5-|
A|-------------------------3-3-3-3-----|
E|-------------------------------------|

   C                       Dm
e|-------------------------------------|
b|-------------------------------------|
g|-----------------------------------2-|
D|---------2-5---------2-5-0-0-0-0-3---|
A|-3-3-3-3-----3-3-3-3-----------------|
E|-------------------------------------|

   Dm                  C                     Dm
e|-1-0---1-0---1-0-1-----0-----0-----0---1-0---|
b|-----3-----3-------3-1---3-1---3-1---3-----3-|
g|---------------------------------------------|
D|---------------------------------------------|
A|---------------------------------------------|
E|---------------------------------------------|

   Dm                  C                 Dm
e|-1-0---1-0---1-0-1-----0-----0-----0-----|
b|-----3-----3-------3-1---3-1---3-1---1-3-|
g|-----------------------------------------|
D|-----------------------------------------|
A|-----------------------------------------|
E|-----------------------------------------|

   Dm                  C                     Dm
e|-1-0---1-0---1-0-1-----0-----0-----0---1-0---|
b|-----3-----3-------3-1---3-1---3-1---3-----3-|
g|---------------------------------------------|
D|---------------------------------------------|
A|---------------------------------------------|
E|---------------------------------------------|

   Dm                  C                 Dm
e|-1-0---1-0---1-0-1-----0-----0-----0-----|
b|-----3-----3-------3-1---3-1---3-1---1-3-|
g|-----------------------------------------|
D|-----------------------------------------|
A|-----------------------------------------|
E|-----------------------------------------|

   Dm    C#┬░    A
e|-----8-7--------5-|
b|---6------------5-|
g|-7--------------6-|
D|----------------7-|
A|----------7-4-----|
E|--------------5---|


Dm                                         Dm C
No debemos de pensar que todo es diferente
Bb                                         Bb B
mil momentos como este quedan en mi mente
C                                             C Dm Em
no se piensa en el verano cuando cae la nieve
F                            A
deja que pase un momento, y volveremos a querernos.

Dm                                          Dm C
Jamas la logica del mundo nos ha dividido
Bb                                          Bb B
ni el futuro tan incierto nos ha preocupado
C                                          C Dm Em
una vez los dos dijimos hay que separarnos
F                          A                     A7
mas desisimos las maletas, antes de emprender el viaje.


D                                                A     A G
Tu no podras faltarme cuando falte todo a mi alrededor
F#                                            Bm   Bm A
tu aire que respiro en aquel paisaje donde vivo yo
G                                                   D
tu, tu me das la fuerza que se necesita para no marchar
            A
tu me das amor.
D                                                A     A G
Tu no podras faltarme cuando falte todo a mi alrededor
F#                                            Bm   Bm A
tu aire que respiro en aquel paisaje donde vivo yo
G                                                   D
tu, tu me das la fuerza que se necesita para no marchar
            A
tu me das amor.


INTRODUCCION:

   Dm                      C
e|-------------------------------------|
b|-------------------------------------|
g|-----------2-----------2-------------|
D|-0-0-0-0-3---0-0-0-0-3-----------2-5-|
A|-------------------------3-3-3-3-----|
E|-------------------------------------|

   C                       Dm
e|-------------------------------------|
b|-------------------------------------|
g|-----------------------------------2-|
D|---------2-5---------2-5-0-0-0-0-3---|
A|-3-3-3-3-----3-3-3-3-----------------|
E|-------------------------------------|

   Dm                  C                     Dm
e|-1-0---1-0---1-0-1-----0-----0-----0---1-0---|
b|-----3-----3-------3-1---3-1---3-1---3-----3-|
g|---------------------------------------------|
D|---------------------------------------------|
A|---------------------------------------------|
E|---------------------------------------------|

   Dm                  C                 Dm
e|-1-0---1-0---1-0-1-----0-----0-----0-----|
b|-----3-----3-------3-1---3-1---3-1---1-3-|
g|-----------------------------------------|
D|-----------------------------------------|
A|-----------------------------------------|
E|-----------------------------------------|

   Dm                  C                     Dm
e|-1-0---1-0---1-0-1-----0-----0-----0---1-0---|
b|-----3-----3-------3-1---3-1---3-1---3-----3-|
g|---------------------------------------------|
D|---------------------------------------------|
A|---------------------------------------------|
E|---------------------------------------------|

   Dm                  C                 Dm
e|-1-0---1-0---1-0-1-----0-----0-----0-----|
b|-----3-----3-------3-1---3-1---3-1---1-3-|
g|-----------------------------------------|
D|-----------------------------------------|
A|-----------------------------------------|
E|-----------------------------------------|

   Dm    C#┬░    A
e|-----8-7--------5-|
b|---6------------5-|
g|-7--------------6-|
D|----------------7-|
A|----------7-4-----|
E|--------------5---|


Dm                                          Dm C
Jamas la logica del mundo nos ha dividido
Bb                                          Bb B
ni el futuro tan incierto nos ha preocupado
C                                          C Dm Em
una vez los dos dijimos hay que separarnos
F                          A                     A7
mas desisimos las maletas, antes de emprender el viaje.


D                                                A     A G
Tu no podras faltarme cuando falte todo a mi alrededor
F#                                            Bm   Bm A
tu aire que respiro en aquel paisaje donde vivo yo
G                                                   D
tu, tu me das la fuerza que se necesita para no marchar
            A
tu me das amor.
D                                                A     A G
Tu no podras faltarme cuando falte todo a mi alrededor
F#                                            Bm   Bm A
tu aire que respiro en aquel paisaje donde vivo yo
G                                                   D
tu, tu me das la fuerza que se necesita para no marchar
            A
tu me das amor.



Esta es una transcripcion personal de un usuario de www.letrasyacordes.net - El material contenido en esta pagina es para exclusivo uso privado, quedando prohibida su reproduccion o retransmision, asi como su uso con fines comerciales.


Letras y Acordes punto net, el mejor sitio para encontrar y compartir letras de canciones, con sus correspondientes acordes para guitarra y piano. No te olvides de votar para calificar la calidad de las letras
Palabras utilizadas para encontrar esta página:
Gilda, PAISAJE, letra y acordes de PAISAJE de Gilda, canciones de Gilda, tocar con guitarra PAISAJE, tocar con piano PAISAJE, estudiar m├║sica
Ver más canciones de :

Gilda


 
{c} 2016 - letrasyacordes.net