Letras y Acordes |  Acordes |  Afinador |  IMC |  num A B C D E F G H I J K L M N O P Q R S T U V W X Y Z 
 

 

QUE TIENES PARA DAR - Carajo  

Links Patrocinados / Anuncios:

una_columnados_columnasaumentar_letrareducir_letravista_scrollver_impresionver_impresion_con_acordes | votar: ++++++---- | Puntaje actual: 6.50

Links Patrocinados

Links Patrocinados

calculadora de indice de masa corporal IMC

Links Patrocinados




Diccionario de Nombres



intro
100%correcto
C-------------------
G-------------------
Eb-----7--10--12----
Bb-----7--10--12----x3
F------5--8---10----
Bb------------------

2da guitarra
C-------------------------------------------
G-------------------------------------------
Eb--7-9-10-9-7-5--7-7-9-10-9--10-12-14-10-14
Bb------------------------------------------
F ---5-7-8-7-5-3--5-5-7-8--7--8--10-12-8--12
Bb------------------------------------------

Verso
C----------------------------------
G----------------------------------
Eb---7--10-----5--7----7--10-------
Bb---7--10--5----------7--10--5----
F----5--8---5--3--5----5--8---5----
Bb----------5-----------------5----

Est
C---------------------------
G---------------------------
Eb--7--10-------------------
Bb--7--10--10--0------------
F---5--8---10--0------------
Bb---------10--0------------

Final
C-----------------------------
G-----------------------------
Eb----------------------------
Bb--00--3-5--0-3-5--0-3-10-10-10-10
F---00--3-5--0-3-5--0-3-10-10-10-10
Bb--00--3-5--0-3-5--0-3-10-10-10-10





Esta es una transcripcion personal de un usuario de www.letrasyacordes.net - El material contenido en esta pagina es para exclusivo uso privado, quedando prohibida su reproduccion o retransmision, asi como su uso con fines comerciales.


Letras y Acordes punto net, el mejor sitio para encontrar y compartir letras de canciones, con sus correspondientes acordes para guitarra y piano. No te olvides de votar para calificar la calidad de las letras
Palabras utilizadas para encontrar esta página:
Carajo, QUE TIENES PARA DAR, letra y acordes de QUE TIENES PARA DAR de Carajo, canciones de Carajo, tocar con guitarra QUE TIENES PARA DAR, tocar con piano QUE TIENES PARA DAR, estudiar música
Ver más canciones de :

Carajo


 
{c} 2016 - letrasyacordes.net