Letras y Acordes |  Acordes |  Afinador |  IMC |  num A B C D E F G H I J K L M N O P Q R S T U V W X Y Z 
 

 

AMARTE SIEMPRE || Kjarkas  

Links Patrocinados / Anuncios:

una_columnados_columnasaumentar_letrareducir_letravista_scrollver_impresionver_impresion_con_acordes | votar: ++++++---- | Puntaje actual: 6.00

Links Patrocinados

Links Patrocinados

calculadora de indice de masa corporal IMC

Links Patrocinados


intro de la cancion guitarra


                             Bb          C           F
1/------------------------------------------------------------
2/---3--3--1--3--1--------1--3--3--3--1--5--------------------
3/------------------3--3-----3-----------5--4--2--3--2--------
4/---3--3--2--3--2--------2--3--3--3--2--5-----------3--------
5/------------------5--5--------------------5--3--5--3--------
6/------------------------------------------------------------

                       G        F
1/----------------------------------------------------------
2/----------------------------------------------------------
3/----------------------------------------------------------
4/-----4/--7--7--7--7--5--5--5--------5--7------------------
5/--8---------------------------8--8--------5--8--8--8--8---
6/----------------------------------------------------------

    A        Dm         F        G        F
1/--------------------------------------------------------------------
2/--------------------------------------------------------------------
3/--------------------------------------------------------------------
4/-----------------4/--7--7--7--7--5--5--5--------5--7----------------
5/--4--7--4--5--8---------------------------8--8--------5--8--8--8--8-
6/--------------------------------------------------------------------

    A        Dm
1/--------------------5-----------
2/-----------------6-----6--------
3/--------------7-----------7-----
4/-----------0-----------------7--
5/--4--7--4-----------------------
6/--------------------------------



Esta es una transcripcion personal de un usuario de www.letrasyacordes.net - El material contenido en esta pagina es para exclusivo uso privado, quedando prohibida su reproduccion o retransmision, asi como su uso con fines comerciales.


Letras y Acordes punto net, el mejor sitio para encontrar y compartir letras de canciones, con sus correspondientes acordes para guitarra y piano. No te olvides de votar para calificar la calidad de las letras
Palabras utilizadas para encontrar esta página:
Kjarkas, AMARTE SIEMPRE, letra y acordes de AMARTE SIEMPRE de Kjarkas, canciones de Kjarkas, tocar con guitarra AMARTE SIEMPRE, tocar con piano AMARTE SIEMPRE, estudiar música
Ver más canciones de :

Kjarkas


 
{c} 2016 - letrasyacordes.net