Letras y Acordes |  Acordes |  Afinador |  IMC |  num A B C D E F G H I J K L M N O P Q R S T U V W X Y Z 
 

 

A LAS ORILLAS DEL RIO || Kjarkas  

Links Patrocinados / Anuncios:

una_columnados_columnasaumentar_letrareducir_letravista_scrollver_impresionver_impresion_con_acordes | votar: ++++++---- | Puntaje actual: 6.00

Links Patrocinados

Links Patrocinados

calculadora de indice de masa corporal IMC

Links Patrocinados


para guitarra


                                         A      C#7                F@m
1/--5/---9--9--9--9---7---9--7--9----12--9---7--7------9---9---7---5---
2/--7/--10--10-10-10--9--10--9--10---14--10--9--9--9---10--10--9---7---
3/--6/-----------------------------------9------9--9---------------6---
4/---------------------------------------------------------------------
5/---------------------------------------------------------------------
6/---------------------------------------------------------------------


    F#m               E                   A     C#7                 F#m
1/--5/---9--9--9--9---7---9---7--9----14--9---7--7------9---9---7---5--
2/--7/---10-10-10-10--9---10--9--10---15--10--9--9--9---10--10--9---7--
3/--6/------------------------------------9------9--9---------------6--
4/---------------------------------------------------------------------
5/---------------------------------------------------------------------
6/---------------------------------------------------------------------

     E                                                       A
1/------------------------------------------------------------------------
2/---9/--12--12--12--12--10--12--9--9/---12--10--12--10--12--14---12---14-
3/---9/--13--13--13--13--11--13--9--9/---13--11--13--11--13--14---13---14-
4/---9/-----------------------------9/-----------------------14-----------
5/------------------------------------------------------------------------
6/------------------------------------------------------------------------

     D                                  C#7                        F#m
1/-------------------------------------------------------------------
2/---7/--10--9--7--5--7--5--7--12---7-----------------9--9--9--9---7-
3/---7/--11--9--7--6--7--6--7--13---7---4/-6--6--6-6--9--9--9--9---6-
4/---7/---------------------------------6-----6--6-6---------------7-
5/-------------------------------------------------------------------
6/-------------------------------------------------------------------
 Se repite este renglon y sigue la parte final del intro


     F#m
1/--------------------------
2/---7--5-------------------
3/---------7--6--4----------
4/-------------------7--6---
5/--------------------------
6/--------------------------



Esta es una transcripcion personal de un usuario de www.letrasyacordes.net - El material contenido en esta pagina es para exclusivo uso privado, quedando prohibida su reproduccion o retransmision, asi como su uso con fines comerciales.


Letras y Acordes punto net, el mejor sitio para encontrar y compartir letras de canciones, con sus correspondientes acordes para guitarra y piano. No te olvides de votar para calificar la calidad de las letras
Palabras utilizadas para encontrar esta página:
Kjarkas, A LAS ORILLAS DEL RIO, letra y acordes de A LAS ORILLAS DEL RIO de Kjarkas, canciones de Kjarkas, tocar con guitarra A LAS ORILLAS DEL RIO, tocar con piano A LAS ORILLAS DEL RIO, estudiar música
Ver más canciones de :

Kjarkas


 
{c} 2016 - letrasyacordes.net