Letras y Acordes |  Acordes |  Afinador |  IMC |  num A B C D E F G H I J K L M N O P Q R S T U V W X Y Z 
 

 

A TU VENTANA || Kjarkas  

Links Patrocinados / Anuncios:

una_columnados_columnasaumentar_letrareducir_letravista_scrollver_impresionver_impresion_con_acordes | votar: ++++++---- | Puntaje actual: 6.00

Links Patrocinados

Links Patrocinados

calculadora de indice de masa corporal IMC

Links Patrocinados


Intro:

e-----------------------------------------0-----2-|
B---------------------------0----1---2b0-----4----|
G---------------0----2---0----2-------------------|
D----2--1-4---2----4------------------------------|
A--2----------------------------------------------|
E-------------------------------------------------|

e----3--2--5-3-2--3-5h7-7~-----------------------|
B-5----------------------------------------------|
G------------------------------------------------|
D------------------------------------------------|
A------------------------------------------------|
E------------------------------------------------|


e|---5h7b53-2-5-3h5b32-0-2-2h3b2b0---------------|
B|-----------------------------------------------|
G|-----------------------------------------------|
D|-----------------------------------------------|
A|-----------------------------------------------|
E|-----------------------------------------------|

e------------------0---------0-2----------|
B-3-1-0-3-1-0-----0-----3-1-3------4~~----|
G--------------2--------------------------|
D-----------------------------------------|
A-----------------------------------------|
E-----------------------------------------|

e--------------------------------0---2-----|
B----------------------0----1-2b0--4-------|
G-------------0---2--0---2-----------------|
D----2-1-4--2---4--------------------------|
A--2---------------------------------------|
E------------------------------------------|

e-0-3/5--5-3-2-0-3-2-0---------------------------|
B----------------------3-1-0---1-0---------------|
G----------------------------2------2------2-----|
D--------------------------------------2h4--- 2--|
A------------------------------------------------|
E------------------------------------------------|

e|-----12--12-12-12--10--9-10----10--10-10-10--8-7-8--|
B|-----12--12-12-12--10-10-10----10--10-10-10--8-8-8--|
G|--12------------------------11----------------------|
D|----------------------------------------------------|
A|----------------------------------------------------|
E|----------------------------------------------------|



Esta es una transcripcion personal de un usuario de www.letrasyacordes.net - El material contenido en esta pagina es para exclusivo uso privado, quedando prohibida su reproduccion o retransmision, asi como su uso con fines comerciales.


Letras y Acordes punto net, el mejor sitio para encontrar y compartir letras de canciones, con sus correspondientes acordes para guitarra y piano. No te olvides de votar para calificar la calidad de las letras
Palabras utilizadas para encontrar esta página:
Kjarkas, A TU VENTANA, letra y acordes de A TU VENTANA de Kjarkas, canciones de Kjarkas, tocar con guitarra A TU VENTANA, tocar con piano A TU VENTANA, estudiar música
Ver más canciones de :

Kjarkas


 
{c} 2016 - letrasyacordes.net