Letras y Acordes |  Acordes |  Afinador |  IMC |  num A B C D E F G H I J K L M N O P Q R S T U V W X Y Z 
 

 

FRIA || Kjarkas  

Links Patrocinados / Anuncios:

una_columnados_columnasaumentar_letrareducir_letravista_scrollver_impresionver_impresion_con_acordes | votar: ++++++---- | Puntaje actual: 6.00

Links Patrocinados

Links Patrocinados

calculadora de indice de masa corporal IMC

Links Patrocinados


ESTA ES MI PRIMERA TRANSCRIPCIÓN,
ESTÁ MÁS COMPLETA QUE LA ANTERIOR,
ESTÁ EN SU NOTA ORIGINAL, ESPERO QUE LES GUSTE,
SE LA DEDICO AL AMOR DE MI VIDA
SUSAN ALVAREZ TAYLOR YA QUE ES UNA CANCIÓN
QUE A ELLA LE GUSTA MUCHO.
SALUDOS A LOS SAMBOS CAPORALES EN SU 25 ANIVERSARIO


INTRODUCCIÓN

E-------0-1------0-1-------0-1--------0-1--------0-1--------0-1---
B----3----------3---------3----------3----------3---------3-------
G--2---------2---------2----------3----------3---------3----------
D-----------------------------------------------------------------
A-----------------------------------------------------------------
E-----------------------------------------------------------------

E--------0---------------------------5-4-5-6-5--
B----1-3---3-1-0-1-0----------------------------
G--0-------------------2-0-3-2-0-3-2------------
D-----------------------------------------------
A-----------------------------------------------
E-----------------------------------------------


La Intro. se puede hacer con las mismas notas
Dm Gm C F A7

 Dm                   Gm
Ahora que te conozco bien
         C                           F      A7  A#↓ A7↓
comprenderas que ya no quiero mas saber… de ti
        Dm                          Gm
si para ti yo siempre fui un perde….dor
          C                     F      A7
un pobre ser  que tiene nada para ofrecer
      Gm                         A#
un soñador poeta gris que en su dolor
      A7                       A7↓  Dm   A#↓ A7↓
equivoco su corazon amandote, amandote

  Dm                       Gm
Fria tienes el alma tan fria
                C                      F A7
hermosa pero vacia que es incapaz de amar *(2)
 Gm                    Dm
dudo que cambies algun dia
                   A7                  Dm
por que una vida vacia llenaste de vanidad

SOLO DE ZAMPOÑA.................

Si para ti yo siempre fui un perde…dor
un pobre ser que tiene nada para ofrecer
un soñador poeta gris que en su dolor



Esta es una transcripcion personal de un usuario de www.letrasyacordes.net - El material contenido en esta pagina es para exclusivo uso privado, quedando prohibida su reproduccion o retransmision, asi como su uso con fines comerciales.


Letras y Acordes punto net, el mejor sitio para encontrar y compartir letras de canciones, con sus correspondientes acordes para guitarra y piano. No te olvides de votar para calificar la calidad de las letras
Palabras utilizadas para encontrar esta página:
Kjarkas, FRIA, letra y acordes de FRIA de Kjarkas, canciones de Kjarkas, tocar con guitarra FRIA, tocar con piano FRIA, estudiar música
Ver más canciones de :

Kjarkas


 
{c} 2016 - letrasyacordes.net