Letras y Acordes |  Acordes |  Afinador |  IMC |  num A B C D E F G H I J K L M N O P Q R S T U V W X Y Z 
 

 

La danza de los mirlos - Damas Gratis  

Links Patrocinados / Anuncios:

una_columnados_columnasaumentar_letrareducir_letravista_scrollver_impresionver_impresion_con_acordes | votar: +++++++--- | Puntaje actual: 7.78

Links Patrocinados

Links Patrocinados

calculadora de indice de masa corporal IMC

Links Patrocinados




Diccionario de Nombres



 La danza de los mirlos........Damas Gratis

    Punteo.1

e-------------------------------|
b-------------------------------|
g-------------------------------|
d-------------0h2-2-2-2-0-------|
a---0-0-0-0-3-------------0-3---|
E-------------------------------|

    Punteo.2

e-------0-0-0-0h3------------|
b-----1------------0-3-----1-|
g---2-------------------2----|
d----------------------------|
a----------------------------|
E----------------------------|

   Punteo.3

e-------0-3-2-1-0-----------------|
b-----1-----------3-1-0-3-1-0---1-|
g---2-------------------------2---|
d---------------------------------|
a---------------------------------|
E---------------------------------|

  Punteo.4

               x
e-------9-9-9-9/12-12-12-12-------------|    x: Este slide se puede remplazar
b-----10--------------------9-12----10--|    por un hammer on (7h10)
g---11---------------------------11-----|
d---------------------------------------|
a---------------------------------------|
E---------------------------------------|

   Punteo.5

e--------------------------------------------------------------------------------------|
b----1------------0-3-------------1-------------0-3------------1-----------0-3---------|
g--2---2--0-0-0-0-----2---2-2-2-2---2---0-0-0-0-----2--2-2-2-2---2-0-0-0-0--------2----|
d--------------------------------------------------------------------------------------|
a--------------------------------------------------------------------------------------|
E--------------------------------------------------------------------------------------|

e-----------------------------3/20------|
b-----------1-----------0-3---3/20------|
g---2-2-2-2---2-0-0-0-0-------3/20------|
d---------------------------------------|
a---------------------------------------|
E---------------------------------------|

 El orden de la canción es el siguiente:

         Punteo.1 (x4).... Punteo.2 (x2).... Punteo.3 (x3)
         Punteo.1 (x4).... Punteo.2 (x2).... Punteo.3 (x3)
         Punteo.4 (x4).... Punteo.5 (x1)

         Repite el mismo orden



 Para qur la canción suene como la versión en vivo hay que
usar un pedal chorus y un delay y darle un efecto hall.

 h.......Hammer on
 /.......Slide





Esta es una transcripcion personal de un usuario de www.letrasyacordes.net - El material contenido en esta pagina es para exclusivo uso privado, quedando prohibida su reproduccion o retransmision, asi como su uso con fines comerciales.


Letras y Acordes punto net, el mejor sitio para encontrar y compartir letras de canciones, con sus correspondientes acordes para guitarra y piano. No te olvides de votar para calificar la calidad de las letras
Palabras utilizadas para encontrar esta página:
Damas Gratis, La danza de los mirlos, letra y acordes de La danza de los mirlos de Damas Gratis, canciones de Damas Gratis, tocar con guitarra La danza de los mirlos, tocar con piano La danza de los mirlos, estudiar música
Ver más canciones de :

Damas Gratis


 
{c} 2016 - letrasyacordes.net