Letras y Acordes |  Acordes |  Afinador |  IMC |  num A B C D E F G H I J K L M N O P Q R S T U V W X Y Z 
 

 

ALMAGRO-HAEDO - Las Pastillas del Abuelo  

Links Patrocinados / Anuncios:

una_columnados_columnasaumentar_letrareducir_letravista_scrollver_impresionver_impresion_con_acordes | votar: ++++++---- | Puntaje actual: 6.00

Links Patrocinados

Links Patrocinados

calculadora de indice de masa corporal IMC

Links Patrocinados




Diccionario de Nombres
Aca está el solo sacado de oido,probablemente tenga errores pero suena
bastante bien. Saludos!

---------------------------------------|
-----------------------11--------------|
----------------10b(12)--10b(12)p8-8-10|
-------8-8h10-10-----------------------|
---8h10--------------------------------|
-11------------------------------------|

---------------------------------------------------------------------------
-----------15b(16)-15b(16)-15b(16)-15-15-13-11-10h11p10-10h11p10-10h11p10--
12-15-15-12--------------------------------------------------------------10
---------------------------------------------------------------------------
---------------------------------------------------------------------------
---------------------------------------------------------------------------


-------------13-12h13p12------------13----------13------------13|
-----11-13-15-----------13-11-11b(13)--11b(13)p9--11b(13)p9-13--|
10s12-----------------------------------------------------------|
----------------------------------------------------------------|
----------------------------------------------------------------|
----------------------------------------------------------------|

15b(17)-15b(17)--15b(17)-13-------15-17|
---------------------------13b(15)-----|
---------------------------------------|
---------------------------------------|
---------------------------------------|
---------------------------------------|

b= Estirar
p= Ligado Desc.
h= Ligado Asc.
s= Deslizar



Esta es una transcripcion personal de un usuario de www.letrasyacordes.net - El material contenido en esta pagina es para exclusivo uso privado, quedando prohibida su reproduccion o retransmision, asi como su uso con fines comerciales.


Letras y Acordes punto net, el mejor sitio para encontrar y compartir letras de canciones, con sus correspondientes acordes para guitarra y piano. No te olvides de votar para calificar la calidad de las letras
Palabras utilizadas para encontrar esta página:
Las Pastillas del Abuelo, ALMAGRO-HAEDO, letra y acordes de ALMAGRO-HAEDO de Las Pastillas del Abuelo, canciones de Las Pastillas del Abuelo, tocar con guitarra ALMAGRO-HAEDO, tocar con piano ALMAGRO-HAEDO, estudiar música
Ver más canciones de :

Las Pastillas del Abuelo


 
{c} 2016 - letrasyacordes.net