Letras y Acordes |  Acordes |  Afinador |  IMC |  num A B C D E F G H I J K L M N O P Q R S T U V W X Y Z 
 

 

AMAR Y ENVEJECER || Las Pastillas del Abuelo  

Links Patrocinados / Anuncios:

una_columnados_columnasaumentar_letrareducir_letravista_scrollver_impresionver_impresion_con_acordes | votar: ++++++---- | Puntaje actual: 6.00

Links Patrocinados

Links Patrocinados

calculadora de indice de masa corporal IMC

Links Patrocinados


Por favor tĂ©nganle paciencia. Al principio parece como si estuviese
errado, pero crĂ©anme, estoy casi seguro que si este no es el original,
se le asemeja bastante. Tengan mucha paciencia, lĂ©anlo todo entero
y despuĂ©s saquen sus propias conclusiones.

Comienza con los acordes de la segunda guitarra…

Punteo inicial:

E: ------------------------------------------------------
B:-10--------------10------------------------------------
G: ---9----------9-------------9-12-10-9-7-10---9-7-9-10-
D: -----10-7-10--------7-10------------------------------
A: ------------------------------------------------------
E: ------------------------------------------------------

------------------------------------------------8-7------
10-8--------------------------------------7-------10-8---
------10-9-7-----7----------7-9-7------------------------
---------------10------9-10--------10-9------------------
---------------------------------------------------------
---------------------------------------------------------

Repite punteo inicial:

Me escapĂ©
(I)
8-7----------------------------------
----10-8----------------------------
----------10-9-7----7-9-7-------
------------------10-----------10-9
--------------------------------------
--------------------------------------

Del mundo yĂ©ndome al norte
(II)
-----------------------------------
--------8--------------------------
7-9-10-----10-9-7-9----------------
-----------------------10-7--------
-----------------------------------
-----------------------------------

Pero otro mundo esperaba allá
(III)
-------------------------7-8-7-----------
--------8-------8-10-----------10--------
-7-9-10---10----------------------9------
---------------------------------------10
-----------------------------------------
-----------------------------------------

Yo arrimĂ©
(I)

Siempre disparo a mansalva
(II)
Pero esa piel fue particular
(III)

La haces muy bien
(IV)
-----------------------------
-10----10-9-7------9-7-------
----------------9---------9-7
-----------------------------
-----------------------------
-----------------------------

Y aunque te hierva la sangre

(No pude sacarlo)

La sangre, te encadenas para no llamar.
(V)
-------------9-10-12-14-12-10-------9-7-7--------
-12-10-12-----------------------12----------7--10
-------------------------------------------------
-------------------------------------------------
-------------------------------------------------
-------------------------------------------------

ÂżCĂłmo haces?
(IV)
Conozco todos tus trucos pero aun asĂ­ me das que pensar.
                            (V)

Solo de piano

Te guardas
(I)
El orgullo donde nadie
(II)
Pueda dudar de que lo tenĂ©s
(III)
Y asĂ­ vas
(I)
Sin perder el objetivo
(II)
Pidiendo dos cuando querĂ©s tres
(III)
Yo ya estoy bien
(IV)
Ya me ordene en mi desorden y aquellas voces no me hablan mas
(V)
Por favor
(IV)
MentĂ­me y dame la espalda, otra vez no quiero patinar
(V)

Sin punteo:
“y me esperas mas de la cuenta, siendo siempre la que yo soñé.
Y firme yo me encierro en que es peor amar y envejecer.”

Solo:
Como los solos no son todos iguales, uno puede â€śjugar” con las
notas ya escritas de solos anteriores. Y si quieren el solo
original de la canciĂłn, yo tambiĂ©n, es otra de las cosas que no
pude sacar del tema.

Solo piano 2

Que esperas
(I)
Mostráme todas tus cartas
(II)
A cara de perro yo no se jugar
(III)
Me endulzas
(I)
El ego siendo sincera
(II)
Dale un poco y te va a pedir más
(III)
Lo sabes
(VI)
-999999999999999999-----------------
-------------------77777777777777777

No hay arma más seductora
(VII)
-101010101010101010-1212121212121212

Que contestar siempre la verdad
(VIII)
9999999-15151515-14141414-1616161616

Vos siempre estas
(VI)
Del otro lado del muro
(VII)
De los lamentos que me contás
(VIII)

No se hablar sin decir malas palabras
Amantes, mentira, infidelidad
Nunca más te vendo gato por liebre
Por no se cruel pierdo honestidad

No es el fin
El problema son los medios
No es algo que yo pueda respetar

Y no esta mal
Que terminen las historias
Mientras hayan historias q contar

Y ya no esperaras
Más de la cuenta
Y siempre serás la que yo soñé
Y yo seguirĂ© pensando que es mejor amar y envejecer.

Solo de saxo.

Termino

--------------------
-10---------------10
----9-----------9---
------10-7-10-------
--------------------
--------------------

Este es el primer tema que subo y me costo mucho hacerlo ya que no
esta en ningĂşn lugar. Lo saque todo de oĂ­do.



Esta es una transcripcion personal de un usuario de www.letrasyacordes.net - El material contenido en esta pagina es para exclusivo uso privado, quedando prohibida su reproduccion o retransmision, asi como su uso con fines comerciales.


Letras y Acordes punto net, el mejor sitio para encontrar y compartir letras de canciones, con sus correspondientes acordes para guitarra y piano. No te olvides de votar para calificar la calidad de las letras
Palabras utilizadas para encontrar esta página:
Las Pastillas del Abuelo, AMAR Y ENVEJECER, letra y acordes de AMAR Y ENVEJECER de Las Pastillas del Abuelo, canciones de Las Pastillas del Abuelo, tocar con guitarra AMAR Y ENVEJECER, tocar con piano AMAR Y ENVEJECER, estudiar mĂşsica
Ver más canciones de :

Las Pastillas del Abuelo


 
{c} 2016 - letrasyacordes.net