Letras y Acordes |  Acordes |  Afinador |  IMC |  num A B C D E F G H I J K L M N O P Q R S T U V W X Y Z 
 

 

AMAR Y ENVEJECER || Las Pastillas del Abuelo  

Links Patrocinados / Anuncios:

una_columnados_columnasaumentar_letrareducir_letravista_scrollver_impresionver_impresion_con_acordes | votar: ++++++---- | Puntaje actual: 6.00

Links Patrocinados

Links Patrocinados

calculadora de indice de masa corporal IMC

Links Patrocinados


LEONARDO OUTEIRIÑO 17 AÑOS DE INDIO RICO PROVINCIA DE BUENOS AIRES.

LAS OTRAS TABLATURAS CON LOS VERSOS Y LOS RIFFS ESTÁN BIEN. SÓLO FALTABA

EL SÓLO DE GUITARRA QUE A CONTINUACIÓN SE LOS DEJO.

SOLO DE GUITARRA DE AMAR Y ENVEJECER DISCO VERSIONES MINUTO

3:30 AL 4:05.

ESTA TABLATURA ESTA BIEN, LES ACONSEJO ESCUCHAR MUY BIEN LA CANCIÓN

Y PONERLA MAS LENTA SI LES ES POSIBLE.(PARA ESCUCHAR LAS PARTES QUE

INDIQUE EN LAS CUALES HAY QUE PRESTAR MUCHA ATENCIÓN).

e|---5-8-7-5------------5---------------------------
B|-5----------5-------5---8-5-----------------------
G|--------------5-7b9---------7-5---5-7-5-----------
D|--------------------------------7-------7-7-------
A|--------------------------------------------------
E|--------------------------------------------------

e|------------------------------------------------
B|------------------------------------------------
G|-5h7p5---5-7---5---4----------------------------
D|-------7-----7---7---5-7------------------------
A|-------------------------8-7-8-7h8p7h8p7h8p7h8--
E|------------------------------------------------


e------------------------------  (PRESTAR MUCHA ATENCIÓN
B------------------------------  A ESTA PARTE Y A LA ANTERIOR
G-------------4-5-7-5---5---5--  PORQUE ES DIFICIL
D-------4-7-7---------7---7----  ENCONTRARLE EL
A-5-7-8------------------------  TIEMPO) DEL MINUTO 3:35 AL
E------------------------------  3:40 MÁS O MENOS)

e|---3---5----7-7-7-8-7------8-8-8-7-7-8-10-8-10-12-10-----------
B|------------8-8-8-8-8------8-8-8-8-8-8-12-8-12-13-12-----------
G|-5---7---7-----------------------------------------------------
D|---------------------------------------------------------------
A|---------------------------------------------------------------
E|---------------------------------------------------------------


e|-7-7-8-7-8-7-8/10-10---7-7-8-7-8-7-8/10-10---------------------
B|-8---------------------8---------------------------------------
G|---------------------------------------------------------------
D|---------------------------------------------------------------
A|---------------------------------------------------------------
E|---------------------------------------------------------------


e|------8-10-8-7-8-7---------------------
B|-8-10--------------8------------------
G|---------------------7b8-5-4-5-4-5-7b9
D|--------------------------------------
A|--------------------------------------
E|---------------------------------------


e|-5------------------------------------------------- (PRESTAR
B|----8-5---------------8-8-----8-----5-7-5-5---4---- ATENCION A
G|--------7b9-5---5-7/9-----9-7-----7---------7---5/7 ESTA PARTE)
D|--------------7------------------------------------ MINUTO 3:52
A|--------------------------------------------------- A 4:00.
E|---------------------------------------------------

e|---------------------------5-7-8-7---7-8/10-10---------------
B|---------------5-6---5-6-8---------8-------------------------
G|---4-5-7-4-5-7-----7-----------------------------------------
D|-7-----------------------------------------------------------
A|-------------------------------------------------------------
E|------------------------------------------------0-1-2-3-4-5--

DESPUES DE ESTO ESTÁ EL SÓLO DE PIANO QUE HACE ALGO

PARECIDO A LA INTRODUCCION..

Cualquier consulta mi mail es leo_out@live.com



Esta es una transcripcion personal de un usuario de www.letrasyacordes.net - El material contenido en esta pagina es para exclusivo uso privado, quedando prohibida su reproduccion o retransmision, asi como su uso con fines comerciales.


Letras y Acordes punto net, el mejor sitio para encontrar y compartir letras de canciones, con sus correspondientes acordes para guitarra y piano. No te olvides de votar para calificar la calidad de las letras
Palabras utilizadas para encontrar esta página:
Las Pastillas del Abuelo, AMAR Y ENVEJECER, letra y acordes de AMAR Y ENVEJECER de Las Pastillas del Abuelo, canciones de Las Pastillas del Abuelo, tocar con guitarra AMAR Y ENVEJECER, tocar con piano AMAR Y ENVEJECER, estudiar música
Ver más canciones de :

Las Pastillas del Abuelo


 
{c} 2016 - letrasyacordes.net