Letras y Acordes |  Acordes |  Afinador |  IMC |  num A B C D E F G H I J K L M N O P Q R S T U V W X Y Z 
 

 

AMAR Y ENVEJECER - Las Pastillas del Abuelo  

Links Patrocinados / Anuncios:

una_columnados_columnasaumentar_letrareducir_letravista_scrollver_impresionver_impresion_con_acordes | votar: ++++++---- | Puntaje actual: 6.00

Links Patrocinados

Links Patrocinados

calculadora de indice de masa corporal IMC

Links Patrocinados




Diccionario de Nombres
Esta seria la versiĂłn a la perfecciĂłn (o mejorada jajaja) de Amar y Envejecer 2
o La Doctora 2 en versiĂłn acĂşstica. Esta seria mas o menos como la saque yo.
DespuĂ©s dejare una videodemostracion para mas ayuda.

Intro:

Riff1 - Riff2 - Riff1 - Riff3 - Riff1* - Riff4 - Riff1 - Riff3 - Riff1 -
Riff2 - Riff1 - Riff3 - Riff1* - Riff4 - Riff1 - Riff3 - Riff1 - Riff2* -
Riff1 - Riff3* - Riff1* - Riff4* - Riff1 - Riff13* - Riff1 - Riff5 -
Riff5 - Riff6 - Riff1 - Riff7 - Riff8 - Riff7 - Riff9 - Riff7* - Riff8 -
Riff7 - Riff9



Y aquĂ­ empezarĂ­a el rasguido. Se alterna antes de el canto con el Riff1:

Riff1 - G - Riff1 - G/C - Riff1* - D - Riff1 - G/C




Riff1:

e||-------------------
B||--0h1p0------------
G||----------0-0h2p0-0
D||-------------------
A||-------------------
E||-------------------


Riff1*:

e||---------------------
B||--0h1p0-------------0
G||----------0-0h2p0-0--
D||---------------------
A||---------------------
E||---------------------


Riff2: G

e||------------------------
B||-----3---3---3---3---3--
G||-----0---0---0---0---0--
D||------------------------
A||------------------------
E||-3-3---3---3---3---3----


Riff2*: G

e||-----3---3---3---3---3--
B||-----3---3---3---3---3--
G||------------------------
D||------------------------
A||------------------------
E||-3-3---3---3---3---3----


Riff3: G/C

e||--------------------------
B||------3---3---3---3---3---
G||------0---0---0---0---0---
D||--------------------------
A||-3-3---3----3---3---3-----
E||--------------------------


Riff3*: G/C

e||------3---3---3---3---3---
B||------3---3---3---3---3---
G||--------------------------
D||--------------------------
A||-3-3---3----3---3---3-----
E||--------------------------


Riff4: D

e||------------------------
B||-----3---3---3---3---3--
G||-----0---0---0---0---0--
D||-0-0---0---0---0---0----
A||------------------------
E||------------------------


Riff4*: D

e||-----2---2---2---0h2---2p0--
B||-----3---3---3---3-----3----
G||----------------------------
D||-0-0---0---0---0-----0------
A||----------------------------
E||----------------------------


Riff5: G

e||---------3-----------------3-----------------3-----------------3------
B||-----3-------3---------3-------3---------3-------3---------3-------3--
G||----------------------------------------------------------------------
D||----------------------------------------------------------------------
A||----------------------------------------------------------------------
E||-3-3---3---3----3-1--1---1---1----1-0--0---0---0----0-1--1---1---1---1


Riff6: G                   C*

e||----3-------3-------3-------3--3/5-----------5-----5-0
B||----3-------3-------3-------1--1/3-------1-----1-----1
G||---------------------------------------0---0-----0---0
D||-----------------------------------------------------4
A||--------0-0--0--2-2--2--3-3--3-3/5---5---------------5
E||3-3--3------------------------------------------------


Riff7: C

e||-------------0-----------------0-----
B||-------1-----------------3-------3---
G||-----0---0-------------0---0-------0-
D||---2-------2---------4-------4-------
A||-3---------------3/5-----------------
E||-------------------------------------


Riff7*: C

e||-----------------0-----------------0-----
B||-----------1-----------------3-------3---
G||---------0---0-------------0---0-------0-
D||-------2-------2---------4-------4-------
A||-0-2-3---------------3/5-----------------
E||-----------------------------------------


Riff8: Em               D

e||-------------3-2-0-3-2------2h3p2--------
B||-------0---------------3----------0------
G||-----0---0---------------2----------0h2p0
D||---2-------2-----------------------------
A||-2---------------------------------------
E||-----------------------------------------


Riff9: Em

e||-------------3-----3-2------2-0
B||-------0-------0-------0-------
G||-----0---0-------0-------0-----
D||---2-------2-------------------
A||-2-----------------------------
E||-------------------------------


Riff10: Em

e||-------------3
B||-------0------
G||-----0---0----
D||---2-------2--
A||-2------------
E||--------------


Riff11: D

e||--------------2h3p2--------
B||-------3------------3------
G||-----2---2------------0h2p0
D||---0-------0---------------
A||-0-------------------------
E||---------------------------

             -------------------------------------------------------------




Riff1 - G - Riff1 - G/C - Riff1* - D - Riff1 - G/C


G
Ya no me encuentro preguntando sobre amor;

G/C
por fin no hay nada que pretenda no saber,

D                                 G/C
entiendo que no hay relaciĂłn entre amar y envejecer.

G
Ya no me encuentro preguntando como dar;

G/C
por fin comparto, por el miedo de perder,

D                                      G/C
el milagro de tus caricias llegando el amanecer.
G
Ya no me encuentro figurando en el veraz,

G/C
por fin no debo más de lo que va a venir;

D                                 G/C
pago el precio de tenerte, darte amor y ser feliz.



Riff5 x4 ( Comienza a cantar en la tercera repeticiĂłn )
Ya no me encuentro contestando un â€śÂżyo que sĂ©?”,
por fin entiendo que en tus redes yo caĂ­.
Ya no me encuentro preguntándome â€śÂżpor quĂ©?”.
por fin entiendo de un vez el "porque sĂ­".

Riff6
Porque te vĂ­, te dejĂ© entrar, cerrĂ© la puerta y te elegĂ­.


Riff1-Riff7
      Porque esos 2 faroles pueden hacer
                Riff10                   Riff11
que si estoy fanĂ©,     las pequeñas cosas
Riff7
se bañen del brillo de esa ternura
                              Riff9
que transmitĂ­s cuando me mirás.



Riff7
Hoy puedo entender que te gusta el tĂ©,
                 Riff10                   Riff11
que odias el cafĂ©,      que no querĂ©s rosas,
Riff7
que a pesar del vĂ©rtigo no hay altura
                                 Riff9 (acaba con rasguidos asĂ­) Em1 - Em2 - Em
que impida que me saque el disfraz.


C                              D
Tirando a matar, dándonos changĂĽĂ­,

                        Em   Em1-Em2-Em-Em1(Cambios rápidos)
puro razonar, puro frenesĂ­.

D
Siempre fue asĂ­ nuestra historia,

C                                 D
que funcione o no, que estĂ© bien o mal,

                                Em - Em1 - Em2 - Em
vivirlo con vos para mi es la gloria.

C                              D
Sin escatimar, sin darnos de más,

                           Em     Em1-Em2-Em-Em1(Cambios rápidos)
sin acelerar, sin tirar pa’ atrás.

D
Siempre fue asĂ­ nuestro asunto;

C                                 D
le falta de acá, le sobra de allá,

                             Em - Em1 - Em2 - Em X2
retocándolo, pero siempre juntos.



Parte del intro:

Riff1 - Riff2 - Riff1 - Riff3 - Riff1* - Riff4 - Riff1 - Riff3 -
Riff1 - Riff2* - Riff1- Riff3* - Riff1* - Riff4* - Riff1 - Riff3*

Riff2
Ya no le temo a ese cagĂłn que habita en mi,

Riff3
ni a sus ataques tontos de furia precoz;

D                                 G/C
distingo excusa y resultado, y hoy elijo estar con vos.



Riff7
Porque me es imposible de imaginar
                Riff10              Riff11
agonĂ­a mas cruel,      más aterradora
Riff7
que mi canto y tu danza alejándose;
                                         Riff9
Uno arriba del tren y otro en la estaciĂłn.


Riff7*
  En los momentos en que quiero escapar
                 Riff10                   Riff11
De mi propia piel,      vos sos mi doctora;
Riff7
con mi panza y tu panza rozándose
                                 Riff9 (acaba con rasguidos asĂ­) Em1 - Em2 - Em
no hay poeta que no haga una canciĂłn.



C                              D
Tirando a matar, dándonos changĂĽĂ­,

                        Em  Em1-Em2-Em-Em1(Cambios rápidos)
puro razonar, puro frenesĂ­.

D
Siempre fue asĂ­ nuestra historia,

C                                 D
que funcione o no, que estĂ© bien o mal,

                                Em - Em1 - Em2 - Em
vivirlo con vos para mi es la gloria.

C                              D
Sin escatimar, sin darnos de más,

                           Em    Em1-Em2-Em-Em1(Cambios rápidos)
sin acelerar, sin tirar pa’ atrás.

D
Siempre fue asĂ­ nuestro asunto;

C                                 D
le falta de acá, le sobra de allá,

                             Em - Em1 - Em2 - Em (x2)
retocándolo, pero siempre juntos.


(AquĂ­ vuelve con la intro completa, pero termina con rasguidos,
antes de empezar nuevamente con el estribillo)


Riff1 - Riff2 - Riff1 - Riff3 - Riff1* - Riff4 - Riff1 - Riff3 - Riff1 -
Riff2 - Riff1 - Riff3 - Riff1* - Riff4 - Riff1 - Riff3 - Riff1 - Riff2* -
Riff1 - Riff3* - Riff1* - Riff4* - Riff1 - Riff13* - Riff1 - Riff5 -
Riff5 - Riff6 - Riff1 - Riff7 - Riff8 - Riff7 - Riff9 - Riff7* - Riff8 -
Riff7 - Riff9 - Em1 - Em2 - Em


C                              D
Tirando a matar, dándonos changĂĽĂ­,

                        Em  Em1-Em2-Em-Em1(Cambios rápidos)
puro razonar, puro frenesĂ­.

D
Siempre fue asĂ­ nuestra historia,

C                                 D
que funcione o no, que estĂ© bien o mal,

                                Em - Em1 - Em2 - Em
vivirlo con vos para mi es la gloria.

C                              D
Sin escatimar, sin darnos de más,

                           Em    Em1-Em2-Em-Em1(Cambios rápidos)
sin acelerar, sin tirar pa’ atrás.

D
Siempre fue asĂ­ nuestro asunto;

C                                 D
le falta de acá, le sobra de allá,

                             Em - Em1 - Em2 - Em
retocándolo, pero siempre juntos.

Em - Em1 - Em2 - Em

Siempre juntos,
Em - Em1 - Em2 - Em

siempre juntos…


Acordes:

       G     G/C   D    C    C*    Em   Em1   Em2    F
e||-----3------3-----2-----0-----5------0------3-----2-----1-
B||-----3------3-----3-----1-----3------0------0-----0-----1-
G||-----0------0-----2-----0-----0------0------0-----0-----2-
D||-----0------2-----0-----2-----4------2------2-----2-----3-
A||-----2------3-----------3-----5------2------2-----2-----3-
E||-----3-------------------------------0------0-----0-----1-


Cualquier tipo de falla, favor de avisar, asĂ­ lo corrijo. Saludos!



Esta es una transcripcion personal de un usuario de www.letrasyacordes.net - El material contenido en esta pagina es para exclusivo uso privado, quedando prohibida su reproduccion o retransmision, asi como su uso con fines comerciales.


Letras y Acordes punto net, el mejor sitio para encontrar y compartir letras de canciones, con sus correspondientes acordes para guitarra y piano. No te olvides de votar para calificar la calidad de las letras
Palabras utilizadas para encontrar esta página:
Las Pastillas del Abuelo, AMAR Y ENVEJECER, letra y acordes de AMAR Y ENVEJECER de Las Pastillas del Abuelo, canciones de Las Pastillas del Abuelo, tocar con guitarra AMAR Y ENVEJECER, tocar con piano AMAR Y ENVEJECER, estudiar mĂşsica
Ver más canciones de :

Las Pastillas del Abuelo


 
{c} 2016 - letrasyacordes.net