Letras y Acordes |  Acordes |  Afinador |  IMC |  num A B C D E F G H I J K L M N O P Q R S T U V W X Y Z 
 
´╗┐
 

ALABAD A JEHOV├ü || Danilo Montero  

Links Patrocinados / Anuncios:

una_columnados_columnasaumentar_letrareducir_letravista_scrollver_impresionver_impresion_con_acordes | votar: +++------- | Puntaje actual: 3.00

Links Patrocinados

Links Patrocinados

calculadora de indice de masa corporal IMC

Links Patrocinados





Bien este es el intermedio para entrar a pueblos todos.
Espero les sirva de algo.

Guitarra:

E---------------------------------------------------
B---------------------------------------------------
G-------2-2-----2b---x-6/4-x-4/2--------------------
D---2h4-----4h2----4-x-7/4-x-4/2--------------------
A---------------------------------------------------
E---------------------------------------------------

Y la de bajo es m├ís o menos as├ş:

G-------2-4-2h4p4-----------------------------------
D---2h4-----------4-2-----2-4p2---------------------
A---------------------2h4-------4p2-2-0-------------
E---------------------------------------------------





Esta es una transcripcion personal de un usuario de www.letrasyacordes.net - El material contenido en esta pagina es para exclusivo uso privado, quedando prohibida su reproduccion o retransmision, asi como su uso con fines comerciales.


Letras y Acordes punto net, el mejor sitio para encontrar y compartir letras de canciones, con sus correspondientes acordes para guitarra y piano. No te olvides de votar para calificar la calidad de las letras
Palabras utilizadas para encontrar esta página:
Danilo Montero, ALABAD A JEHOVÁ, letra y acordes de ALABAD A JEHOVÁ de Danilo Montero, canciones de Danilo Montero, tocar con guitarra ALABAD A JEHOVÁ, tocar con piano ALABAD A JEHOVÁ, estudiar música
Ver más canciones de :

Danilo Montero


 
{c} 2016 - letrasyacordes.net