Letras y Acordes |  Acordes |  Afinador |  IMC |  num A B C D E F G H I J K L M N O P Q R S T U V W X Y Z 
 
ÔĽŅ
 

LA CASA DE DIOS || Danilo Montero  

Links Patrocinados / Anuncios:

una_columnados_columnasaumentar_letrareducir_letravista_scrollver_impresionver_impresion_con_acordes | votar: +++++----- | Puntaje actual: 5.56

Links Patrocinados

Links Patrocinados

calculadora de indice de masa corporal IMC

Links Patrocinados





Secuencia de inicio (s√≥lo checa el ritmo que lleva, en si as√≠ va
toda la canci√≥n)

D A Bm G
D A  G

Requinto del inicio (el acompa√Īamiento va igual que la secuencia de inicio)

   00:14
e|--------------------------------------------------------------------
B|----------------------------------------10b12-10--------------------
G|-----------9-9b11-9----9-------------11----------11------------11h14
D|------9-12----------12----------9-12----------------12---12h14------
A|-9h12-----------------------9-12------------------------------------
E|--------------------------------------------------------------------


                                                         00:28
e|-17-14-15-17-14---------12------------------------------------------
B|-----------------14--14----14h12-----15b17-15-14-12-----------------
G|---------------------------------14-----------------14-12-----------
D|--------------------------------------------------------------------
A|--------------------------------------------------------------------
E|--------------------------------------------------------------------


D           A         Bm      G
Mejor es un d√≠a en la casa de Dios,
     D        A       Bm    G
Que mil a√Īos lejos de √Čl.
   D            A        Bm       G
Prefiero un rinc√≥n en la casa de Dios,
     D        A           Bm
Que todo el palacio de un rey,
    D         A            G
Que todo el palacio de un rey.

<Coro>
        D                A
Ven conmigo a la casa de Dios,
       Bm                G
Celebraremos juntos su amor,
         D                   A           G
Haremos fiesta en honor de aquel que nos am√≥
           D               A
Estando aqu√≠ en la casa de Dios
      Bm            G
Alegraremos su coraz√≥n,
         D                 A            G
Le brindaremos ofrendas de obediencia y amooor,
                 D
¬°En la casa de dios!






Solo de guitarra (el acompa√Īamiento es igual al del inicio,
con la misma secuencia)

  01:29
e|-9h10-9-------------------------------------------------------------
B|--------10h12-10------10-------------------10b12‚ÄĒ10b12--------------
G|-----------------9h11----9-----------12-12------------9-7-6
D|---------------------------12-12-7/9------------------------7-------
A|--------------------------------------------------------------7-----
E|----------------------------------------------------------------7-10

e|------------------10/15-15------------------------------------------
B|-------------7-10---------------------------------------------------
G|---------7-9--------------------------------------------------------
D|-----7-9------------------------------------------------------------
A|-7-9----------------------------------------------------------------
E|--------------------------------------------------------------------


D        A    Bm        G
Arde mi alma, arde de amor,
D             A         Bm        G
Porque el que me dio la vida,
    D        A    Bm       G
Por eso le anhela mi coraz√≥n,
  D        A      Bm
Anhela de su compa√Ī√≠a,
  D        A       G
Anhela de su compa√Ī√≠a.


<Coro>
//      D                A
Ven conmigo a la casa de Dios,
       Bm                G
Celebraremos juntos su amor,
         D                   A           G
Haremos fiesta en honor de aquel que nos am√≥
           D               A
Estando aqu√≠ en la casa de Dios
      Bm            G
Alegraremos su coraz√≥n,
         D                 A            G
Le brindaremos ofrendas de obediencia y amooor, //


//
                 D A Bm G
¬°En la casa de Dios!
                 D A G
¬°En la casa de Dios!
                        //


Coro x 1

//               D A Bm G
¬°En la casa de Dios!
                 D A G
¬°En la casa de Dios!
                       //

Dios los bendiga!!! Atte: Erik
Pd: Saludos a una persona que quiero MUCHO(Luz Elena)...





Esta es una transcripcion personal de un usuario de www.letrasyacordes.net - El material contenido en esta pagina es para exclusivo uso privado, quedando prohibida su reproduccion o retransmision, asi como su uso con fines comerciales.


Letras y Acordes punto net, el mejor sitio para encontrar y compartir letras de canciones, con sus correspondientes acordes para guitarra y piano. No te olvides de votar para calificar la calidad de las letras
Palabras utilizadas para encontrar esta p√°gina:
Danilo Montero, LA CASA DE DIOS, letra y acordes de LA CASA DE DIOS de Danilo Montero, canciones de Danilo Montero, tocar con guitarra LA CASA DE DIOS, tocar con piano LA CASA DE DIOS, estudiar m√ļsica
Ver m√°s canciones de :

Danilo Montero


 
{c} 2016 - letrasyacordes.net