Letras y Acordes |  Acordes |  Afinador |  IMC |  num A B C D E F G H I J K L M N O P Q R S T U V W X Y Z 
 

 

ABRACADABRA || Silvio Rodriguez  

Links Patrocinados / Anuncios:

una_columnados_columnasaumentar_letrareducir_letravista_scrollver_impresionver_impresion_con_acordes | votar: ++++++---- | Puntaje actual: 6.00

Links Patrocinados

Links Patrocinados

calculadora de indice de masa corporal IMC

Links Patrocinados


GENTE NO PONGO LA LETRA DE LA CANCIÓN, USTEDES VAYAN TOCANDO

Y SE VAN A DAR CUENTA EN QUE PARTE CANTAR, ESCUCHEN LA CANCIÓN

Y VAN A VER!!

|-------------|-------------|-------------|-------------|
|-1-----1-----|-------4-----|-------1-----|-------4-----|
|-----0---0---|-----0---0---|-----0---0---|-----0---0---|   I
|---2-------2-|---5---------|---2-------2-|---5---------|
|-3-----------|-6-----------|-3-----------|-6-----------|
|-------------|-----------6-|-------------|-----------6-|


|-------------|-------------|-------------|-------------|
|-------1-----|-------4-----|-------1-----|-------4-----|
|-----0---0---|-----0---0---|-----0---0---|-----0---0---|   II
|---2-------2-|---5---------|---2-------2-|---5---------|
|-3-----------|-6-----------|-3-----------|-6-----------|
|-------------|-----------6-|-------------|-----------6-|


|-------2-----|-------------|---------------|-------------|
|-----3-------|---------6-4-|---------------|-------------|
|---2-----5-2-|-------5-----|-2-------2p0---|-0-----0-2p0-|  III
|-0-----------|-----6-------|---3---3-----3-|-----0-------|
|-------------|---6---------|-----3---------|---2---------|
|-------------|-4-----------|-1-------------|-3-----------|


|---------------|-------------|---------------|-------------|
|---------------|-------------|---------------|-------------|
|-----0-0h2p0---|-----0-0-5---|-----0-0h2p0---|-----0-0-5---|   IV
|---2---------2-|---5---------|---2---------2-|---5---------|
|-3-------------|-6-----------|-3-------------|-6-----------|
|---------------|-----------6-|---------------|-----------6-|


II, III, IV, (ahora cambia un poco, miren)


|-------------|-------------|-------------|-------------|
|-------1-----|-------------|-------3-----|---------1---|
|-----0---0---|-----0-0-5---|-----3---3---|-------2---2-|   V
|---2-------2-|---5---------|---3-------3-|-----3-------|
|-3-----------|-6-----------|-1-----------|---3---------|
|-------------|-----------6-|-------------|-1-----------|


|---------------|-------------|-------------|-------------|
|---------------|-------------|-------3-----|---------1---|
|-----0-0h2p0---|-----0-0-5---|-----3---3---|-------2---2-|   VI X2
|---2---------2-|---5---------|---3-------3-|-----3-------|
|-3-------------|-6-----------|-1-----------|---3---------|
|---------------|-----------6-|-------------|-1-----------|


|---------------|-------------|-------------|-------------|
|---------------|-------------|-------3-----|-------0-----|
|-----0-0h2p0---|-----0-0-5---|-----3---3---|-----0-------|   VII
|---2---------2-|---5---------|---3-------3-|---0---------|
|-3-------------|-6-----------|-1-----------|--------0-2--|
|---------------|-----------6-|-------------|-3-----------|


Y ahora si viene la parte más difícil, por lo menos para mi.

|---------------|-------------|-------------|-------------|
|---------------|-------------|-------3-----|-------1-----|
|-----0-0h2p0---|-----0-5-----|---3---------|-----2-------|   VII X4
|---2---------2-|---5---------|-3---3-------|---3---------|
|-3-------------|-6---------1-|---------0---|-------------|
|---------------|---------6---|-----------3-|-1-------1-3-|


|-------------|-0-----------|-----0-------|-0-----------|
|-------1---1-|-------1---1-|-1-------1---|-----1---1---|
|-----0---0---|-----0---0---|---2---2---2-|---2---2---2-|   VIII
|---2---------|---2---------|-3-----------|-3-----------|
|-3-----------|-3-----------|-------------|-------------|
|-------------|-------------|-------------|-------------|


|-------------|-0-----------|-------------|-1-----1-----|
|-------1---1-|-------1-----|-------1-----|-----1-------|
|-----0---0---|-----0---0---|-----2---2---|---2-----2---|   IX
|---2---------|---2-------2-|-----------3-|-3-----------|
|-3-----------|-3-----------|---3---------|-------------|
|-------------|-------------|-1-----------|-----------3-|


|-------------|-------------|-------------|-0---------0-|
|-------1-----|-0-------0---|-1---------1-|-----0---0---|
|-----2---2---|-----0-------|-----2---2---|---0---------|  X
|---2-------2-|---0---0---0-|---3---3-----|-------2-----|
|-0-----------|-------------|-------------|-------------|
|-------------|-3-----------|-1-----------|-0-----------|


|-----1-----1-|-----1-----1-|-----1-----1-|-----1-----0-|
|---------3---|-2-------2---|-1-------1---|-0-------0---|
|---2---2-----|---2---2-----|---2---2-----|---2---2-----|   XI
|-0-----------|-0-----------|-0-----------|-0-----------|
|-------------|-------------|-------------|-------------|
|-------------|-------------|-------------|-------------|


|-------0-----|-------0-----|-------1-----|-------1-----|
|-----1-----1-|-----1-----0-|-----1-----1-|-----1---1---|
|-2-------2---|-0-------0---|---2-----2---|---2-------2-|   XII
|---2---------|---2---------|-3-----------|-3-----------|
|-0-----------|-0-----------|-------------|-------------|
|-------------|-------------|-1-----------|-1-----------|


Ahora viene una parte de rasgueo...

Es algo así el ritmo:

arriba, abajo, arriba, arriba, abajo, arriba

Y los acordes son:

e|0   e|0   e|1   e|3
B|1   B|0   B|3   B|0
G|0   G|0   G|3   G|0
D|2   D|2   D|3   D|0
A|3   A|2   A|1   A|2
E|3   E|0   E|x   E|3


Con cada acorde hace el ritmo mencionado arriba, y luego sigue asi:


|---------------|-------------|   e|1   e|3
|---------------|-------------|   B|3   B|0
|-----0-0h2p0---|-----0-0-5---|   G|3   G|0     X2
|---2---------2-|---5---------|   D|2   D|0
|-3-------------|-6-----------|   A|1   A|2
|---------------|---------6---|   E|1   E|3


Nuevo serie de acordes con el mismo rasgueo que antes:

e|0   e|3   e|1   e|0
B|1   B|0   B|1   B|0
G|2   G|0   G|2   G|0
D|2   D|0   D|3   D|2
A|0   A|2   A|3   A|2
E|0   E|3   E|1   E|0


|-------1-----|-1-----1-----|-1-----1-----|-1-----1-----|
|-3---3-----3-|-2---2-----2-|-1---1-----1-|-0---0-----0-|
|---2-----2---|-2-2-----2---|-2-2-----2---|-2-2-----2---|   XIII
|-0-----------|-0-----------|-0-----------|-0-----------|
|-------------|-------------|-------------|-------------|
|-------------|-------------|-------------|-------------|


|-------0-----|-------0-----|-------1-----|-1-----1-----|
|-----1-----1-|-----1-----1-|-----1-----1-|-1---1-----1-|
|---2-----2---|-0-0-----0---|-2-2-----2---|-2-2-----2---|   XIV
|-------------|-2-----------|-3-----------|-3-----------|
|-0-----------|-------------|-3-----------|-------------|
|-------------|-------------|-1-----------|-------------|


Nuevamente la serie de rasgueos descritos al principio (los primeros)


|-------------|-------------|-------------|-------------|
|-------1---1-|-------4-----|-------1-----|-------4-----|
|-----0---0---|-----0---0---|-----0---0---|-----0---0---|   XV
|---2---------|---5---------|---2-------2-|---5---------|
|-3-----------|-6-----------|-3-----------|-6-----------|
|-------------|-----------6-|-------------|-----------6-|


Hace lo mismo que en II, III, IV, IV, III, IV, III, III

Y cierra con estos acordes (con el mismo rasgueo de siempre):

e|3   e|1   e|0   e|0
B|1   B|1   B|1   B|1
G|2   G|2   G|0   G|0
D|3   D|3   D|2   D|2
A|3   A|3   A|3   A|3
E|1   E|1   E|3   E|3


Espero que les sirve a todos, un lujo poder enseñar por este medio a otros

Ahoguen su corazón de Silvio!



Esta es una transcripcion personal de un usuario de www.letrasyacordes.net - El material contenido en esta pagina es para exclusivo uso privado, quedando prohibida su reproduccion o retransmision, asi como su uso con fines comerciales.


Letras y Acordes punto net, el mejor sitio para encontrar y compartir letras de canciones, con sus correspondientes acordes para guitarra y piano. No te olvides de votar para calificar la calidad de las letras
Palabras utilizadas para encontrar esta página:
Silvio Rodriguez, ABRACADABRA, letra y acordes de ABRACADABRA de Silvio Rodriguez, canciones de Silvio Rodriguez, tocar con guitarra ABRACADABRA, tocar con piano ABRACADABRA, estudiar música
Ver más canciones de :

Silvio Rodriguez


 
{c} 2016 - letrasyacordes.net