Letras y Acordes |  Acordes |  Afinador |  IMC |  num A B C D E F G H I J K L M N O P Q R S T U V W X Y Z 
 

 

CABALLO VIEJO || Simón Diaz  

Links Patrocinados / Anuncios:

una_columnados_columnasaumentar_letrareducir_letravista_scrollver_impresionver_impresion_con_acordes | votar: +++++----- | Puntaje actual: 5.50

Links Patrocinados

Links Patrocinados

calculadora de indice de masa corporal IMC

Links Patrocinados


Gm
|---------------------1-0-----------1-0----------|
|-------------------3-----3-------3-----3--------|
|-0-3-3-3-0-2-3-0-3---------3-0-3---------2------|
|------------------------------------------------|
|------------------------------------------------|
|------------------------------------------------|

Dm
|---------------------1--------------------------|
|-------------------3---3------------------------|
|---2-2-2---0-2---2-------2-0--------------------|
|-3-------3-----3--------------------------------|
|------------------------------------------------|
|------------------------------------------------|

A7
|------------------------------------------------|
|-------------------2----------------------------|
|---0-0-0-----0-2-2---2-0------------------------|
|-2-------2-3-------------3-0--------------------|
|------------------------------------------------|
|------------------------------------------------|

Dm
|------------------------------------------------|
|-------0-2--------------------------------------|
|-0-2-3------------------------------------------|
|------------------------------------------------|
|------------------------------------------------|
|------------------------------------------------|

x2


                      A7           Dm
Cuando el amor llega así de esta manera
 A#              A7
uno no se da ni cuenta,
    Gm             A7             Gm        A7
“El Carutal” reverdece y â€œEl Guamachito” florece
                  Dm
y las sogas se revientan.

                      A7           Dm
Cuando el amor llega así de esta manera
 A#              A7
uno no se da ni cuenta,
    Gm            A7              Gm        A7
“El Carutal” reverdece y â€œEl Guamachito” florece
                   Dm    D7   Gm
y las sogas se revientan.

                                   A#        Dm
Caballo le dan Sabana porque esta viejo y cansao
                                     A#      A7
pero no se dan de cuenta que un corazón amarrao
                                               Dm  D7  Gm
cuando le sueltan las riendas en caballo desbocao.

                                A#         Dm
Y si una potra alazana caballo viejo se encuentra
                                     A#        A7
el pecho se le desgrana y no le hace caso a falceta
                                             Dm
y no le obedece a freno ni lo paran falsas riendas.

                       A7           Dm
Cuando el amor llega  así de esta manera
 A#               A7
uno no tiene  la  culpa
   Gm                A7       Gm                A7
quererse no tiene horarios ni fecha en el calendario
                    Dm
cuando las ganas se juntan.

     Dm               A7            Dm
Cuando el amor llega  así de esta manera
A#                  A7
uno no tiene  la  culpa
Gm                   A7          Gm            A7
quererse no tiene horarios ni fecha en el calendario
                      Dm    D7   Gm
cuando las ganas se juntan.

                                    A#      Dm
Caballo le dan sabana y tiene  el  tiempo contao
                                A#      A7
y se va por la mañana con su pasito apurao
                                               Dm  D7  Gm
a verse con su potranca que lo tiene embarrascao

                                        A#      Dm
El potro da tiempo al tiempo porque le sobra la edad
                                  A#         A7
Caballo viejo no puede perder la flor que le dan
                                               Dm      A7    Dm
porque después de esta vida no hay otra oportunidad.



Esta es una transcripcion personal de un usuario de www.letrasyacordes.net - El material contenido en esta pagina es para exclusivo uso privado, quedando prohibida su reproduccion o retransmision, asi como su uso con fines comerciales.


Letras y Acordes punto net, el mejor sitio para encontrar y compartir letras de canciones, con sus correspondientes acordes para guitarra y piano. No te olvides de votar para calificar la calidad de las letras
Palabras utilizadas para encontrar esta página:
Simón Diaz, CABALLO VIEJO, letra y acordes de CABALLO VIEJO de Simón Diaz, canciones de Simón Diaz, tocar con guitarra CABALLO VIEJO, tocar con piano CABALLO VIEJO, estudiar música
Ver más canciones de :

Simón Diaz


 
{c} 2016 - letrasyacordes.net