Letras y Acordes |  Acordes |  Afinador |  IMC |  num A B C D E F G H I J K L M N O P Q R S T U V W X Y Z 
 
´╗┐
 

EL TIEMPO DE TI || Playa Limbo  

Links Patrocinados / Anuncios:

una_columnados_columnasaumentar_letrareducir_letravista_scrollver_impresionver_impresion_con_acordes | votar: ++++------ | Puntaje actual: 4.00

Links Patrocinados

Links Patrocinados

calculadora de indice de masa corporal IMC

Links Patrocinados


Intro   Riff 1 (2)

Riff 1
      C#m                         A
e-------4-------------4-------------4-------------4------------
B-------5---5---------5---5---------5----5--------5----5-------
G----------6---6---------6---6----------6---6---------6---6----
D-------------6-------------6------7-------7-----7-------7-----
A-----4-------------4------------------------------------------
E--------------------------------------------------------------

Riff 1
C#m                 A
Es f├ícil decir, te voy a extra├▒ar,
Riff 1
C#m                 A
se siente morir, no puedo enga├▒ar,
Riff 2
  F#m              C#m
A un coraz├│n, que supo amar,
Riff 3
    F#m            B
con otra raz├│n, aparte de dar.

No siento tu voz, no escucho tu hablar,
presiento que dos, es un numero impar,
no puedo seguir, sin tu respirar,
entiende que yo, solo quiero llegar.


CORO
   E
No puedo volar,
   G#m             C#
si no est├ín tus pasos,
    F#m                 B
que llenen el tiempo de ti.
   E
No quiero volar,
          G#m           Bm7   E7
sin que extiendas tus brazos,
  F#m                    B
y sientas, la brisa, en tu rostro,
     B        Intro
y te mojes de m├ş.


Es f├ícil decir, ma├▒ana vendr├ę,
no puedo fingir, que voy a estar bien,
no puedo seguir, sin tu respirar,
entiende que yo, solo quiero llegar.


CORO
                 C#
...y te mojes de m├ş, y te mojes de m├ş.


SOLO  (3:16)
     F#                                A#m        D#            G#m
e------------------------------------------------------------------
B------------------------------------------------------------------
G------------------------------------------6h8-6-6h9-8p6-8-6-------
D--6-6/8---8h9--8-6------------6-8/9-9/11--------------------9-8-9-
A--------------------9p8-6h8-9-------------------------------------
E------------------------------------------------------------------

                              C#
e-----------------------------------------------------------
B-----------------------------------------------------------
G---6-8-----6h8-6---------------------------6-6h8-6-6h8-6---
D--------6---------8-8/9-8---------6-6h8-6------------------
A--------------------------8-8/9----------------------------
E-----------------------------------------------------------

CORO
     F#
Y no puedo volar,
   A#m            D#
si no est├ín tus brazos,
    G#m                 C#
que llenen el tiempo de ti.
       F#                       A#m          C#m7  F#7
Y no quiero volar, sin que extiendas tus brazos
   G#m             C#
entiende se siente morir.


     F#
y no puedo volar,
   A#m          D#
si no est├ín tus pasos
   G#m                       C#
y sientas la brisa en tu rostro,
               Riff 4 (5)
y te mojes, de m├ş.


Riff 2
      F#m                        C#m
e-------4-------------4-------------4-------------4------------
B-------5---5---------5---5---------5----5--------5----5-------
G----------6---6---------6---6----------6---6---------6---6----
D-----4-------4-----4-------4--------------6-------------6-----
A----------------------------------4-------------4-------------
E--------------------------------------------------------------

Riff 3
      F#m                         B
e-------4-------------4-------------4-----------
B-------5---5---------5---5---------5--5---5-4--
G----------6---6---------6---6----4-----4----4--
D-----4-------4-----4-------4-------------------
A-----------------------------------------------
E-----------------------------------------------

Riff 4
      C#m/A                         C#m
e-------4-------------4-------------4-------------4------------
B-------5---5---------5---5---------5----5--------5----5-------
G----------6---6---------6---6----------6---6---------6---6----
D-------------6-------------6--------------6-------------6-----
A-----0-------------0-------------4--------------4-------------
E--------------------------------------------------------------



Esta es una transcripcion personal de un usuario de www.letrasyacordes.net - El material contenido en esta pagina es para exclusivo uso privado, quedando prohibida su reproduccion o retransmision, asi como su uso con fines comerciales.


Letras y Acordes punto net, el mejor sitio para encontrar y compartir letras de canciones, con sus correspondientes acordes para guitarra y piano. No te olvides de votar para calificar la calidad de las letras
Palabras utilizadas para encontrar esta página:
Playa Limbo, EL TIEMPO DE TI, letra y acordes de EL TIEMPO DE TI de Playa Limbo, canciones de Playa Limbo, tocar con guitarra EL TIEMPO DE TI, tocar con piano EL TIEMPO DE TI, estudiar m├║sica
Ver más canciones de :

Playa Limbo


 
{c} 2016 - letrasyacordes.net