Letras y Acordes |  Acordes |  Afinador |  IMC |  num A B C D E F G H I J K L M N O P Q R S T U V W X Y Z 
 

 

BLANCA NAVIDAD - Villancicos  

Links Patrocinados / Anuncios:

una_columnados_columnasaumentar_letrareducir_letravista_scrollver_impresionver_impresion_con_acordes | votar: ++++++---- | Puntaje actual: 6.00

Links Patrocinados

Links Patrocinados

calculadora de indice de masa corporal IMC

Links Patrocinados




Diccionario de Nombres
Hola, esta es mi primera transcripción,
una canción facil y suena hermoso.
Espero que les guste, para mí es la mejor Â¡
~ =] Vibrato/Movimiento oscilatorio de la muñeca sobre la cuerda.
/ =] Slash /Arrastrar dedo al otro traste sin soltar.

E|-----7-5-----------------7-5---------
B|---------7/8-----------------7/8-----
G|-5/7----------7~---7-7-7---------7/9-
D|-------------------------------------
A|-------------------------------------
E|-------------------------------------

E|--------8-7----------8/10-10--------------
B|------------8/10-------------10/12-10-12~-
G|-9-9-9----------9/11----------------------
D|------------------------------------------
A|------------------------------------------
E|------------------------------------------

E|-----7-5-----------------7-5---------
B|---------7/8-----------------7/8-----
G|-5/7----------7~---7-7-7---------7/9-
D|-------------------------------------
A|-------------------------------------
E|-------------------------------------


E|-------8-7--------7/10-10-10-10-12-10--------------
B|-----------8/10-----------------------10/12-10-----
G|-9-9-9-----------------------------------------12~-
D|---------------------------------------------------
A|---------------------------------------------------
E|---------------------------------------------------

E|--5/7-7-7---5/7-7-7---7-7/10------7~---7/8-8-8--
B|----------------------------8-10----------------
G|------------------------------------------------
D|------------------------------------------------
A|------------------------------------------------


E|-8-8-7-7---7-7-------7----7/10-
B|--------------10-10---10-------
G|-------------------------------
D|-------------------------------
A|-------------------------------
E|-------------------------------

E|--5/7-7-7---5/7-7-7---7-7/10------7~--
B|-----------------------------8-10-----
G|--------------------------------------
D|--------------------------------------
A|--------------------------------------
E|--------------------------------------

E|-7/8-8-8---8-8-7-7---7/10-10-8-----------
B|-------------------------------8/10-8~---
G|-----------------------------------------
D|-----------------------------------------
A|-----------------------------------------
E|-----------------------------------------



Esta es una transcripcion personal de un usuario de www.letrasyacordes.net - El material contenido en esta pagina es para exclusivo uso privado, quedando prohibida su reproduccion o retransmision, asi como su uso con fines comerciales.


Letras y Acordes punto net, el mejor sitio para encontrar y compartir letras de canciones, con sus correspondientes acordes para guitarra y piano. No te olvides de votar para calificar la calidad de las letras
Palabras utilizadas para encontrar esta página:
Villancicos, BLANCA NAVIDAD, letra y acordes de BLANCA NAVIDAD de Villancicos, canciones de Villancicos, tocar con guitarra BLANCA NAVIDAD, tocar con piano BLANCA NAVIDAD, estudiar música
Ver más canciones de :

Villancicos


 
{c} 2016 - letrasyacordes.net