Letras y Acordes |  Acordes |  Afinador |  IMC |  num A B C D E F G H I J K L M N O P Q R S T U V W X Y Z 
 

 

LA INDIFERENCIA || Los Voceros de Cristo  

Links Patrocinados / Anuncios:

una_columnados_columnasaumentar_letrareducir_letravista_scrollver_impresionver_impresion_con_acordes | votar: +++------- | Puntaje actual: 3.50

Links Patrocinados

Links Patrocinados

calculadora de indice de masa corporal IMC

Links Patrocinados


E -----------------1-0---------5-4-7-5-4-5-7-8-----8-5-0------------
B------------0-3--------4-5-------------------------------------1-0-
G---------1---------------------------------------------------------
D—2-2---------------------------------------------------------------
A-------------------------------------------------------------------

e---------------------------
b---------------------------
g----2-1----------------------
d---------------------------
a---------------------------

E-------------------5------------5-7-8-10-10-8-7-8----8-0------------
B-------------3-6------3-6-3-----------------------------------3-1-0-
G----------4---------------------------------------------------------
D—5-5----------------------------------------------------------------
A--------------------------------------------------------------------

e-----0----------------------
b---1----1--------------------
g-2--------------------------
d---------------------------
a---------------------------

E------------10-13-----7-10-------4-7--------4-7------8-12--------8-12
B---------------------------------------------------------------------
G------10-----------7---------7-4--------4-4---------9----------9-9---
D---------------------------------------------------------------------
A---------------------------------------------------------------------


E-----------8-------------8-8-8-8---------------8------8-5----------5-
B------10-----------10-------------10------10----10--------7-----7----
G-----------------------------------------10-------------------8--
D—10---------10-------------------------------------------------------
A---------------------------------------------------------------------

e---------5---------5--
b----7---7----7---7-----
g-------8--------8------
d-----------------------
a-----------------------

E—4----------8-----------7------4---
B-----5----5-----5-----5--------5---
G-------7------------7----------7---
D-----------------------------------
A-----------------------------------

Segunda vez

E -----------------1-0---------5-4-7-5-4-5-7-8-----8-5-0-----
B------------0-3--------4-5--------------------------------1-0-----
G---------1------------------------------------------------------2-1-
D—2-2----------------------------------------------------------------
A--------------------------------------------------------------------


E-------------------5------------5-7-8-10-10-8-7-8---8-0-----------0--
B-------------3-6------3-6-3------------------------------3-1-0--1---1
G----------4----------------------------------------------------2-----
D—5-5-----------------------------------------------------------------
A---------------------------------------------------------------------




E-------1----------1--------------------------------0--------0------
B----3---------3---------------3------------3----1---------1-----1
G---------------------------4------------4----------------------2--
D—3-------3-0---------0------------------------2-------2-2-----------
A-------------------------2---------2-2------------------------3----

e--------------------
b--------1-1-1-1-------
g-----2----------------
d-----------------------
a-3-3----------------------
                              hacer rasgueoooo..
E--------------------------0-------0--0-0---------0-0-----------
B------1---1-3-0-------0-----1-------------0 h 1--------0 h 1---
G—2---2--2-------1---1---1-----2----------------2-----o-------2-
D---3--------------2---------------------------------------------
A----------------------------------------------------------------

jesus le bendiga att david garcia guzman de nicaragua-salude hnos
paz de jesucristo



Esta es una transcripcion personal de un usuario de www.letrasyacordes.net - El material contenido en esta pagina es para exclusivo uso privado, quedando prohibida su reproduccion o retransmision, asi como su uso con fines comerciales.


Letras y Acordes punto net, el mejor sitio para encontrar y compartir letras de canciones, con sus correspondientes acordes para guitarra y piano. No te olvides de votar para calificar la calidad de las letras
Palabras utilizadas para encontrar esta página:
Los Voceros de Cristo, LA INDIFERENCIA, letra y acordes de LA INDIFERENCIA de Los Voceros de Cristo, canciones de Los Voceros de Cristo, tocar con guitarra LA INDIFERENCIA, tocar con piano LA INDIFERENCIA, estudiar música
Ver más canciones de :

Los Voceros de Cristo


 
{c} 2016 - letrasyacordes.net