Letras y Acordes |  Acordes |  Afinador |  IMC |  num A B C D E F G H I J K L M N O P Q R S T U V W X Y Z 
 

 

DURMIENDO CON LA LUNA - Elefante  

Links Patrocinados / Anuncios:

una_columnados_columnasaumentar_letrareducir_letravista_scrollver_impresionver_impresion_con_acordes | votar: ++++------ | Puntaje actual: 4.00

Links Patrocinados

Links Patrocinados

calculadora de indice de masa corporal IMC

Links Patrocinados




Diccionario de Nombres



SI TIENES DUDAS MANDAME UN MAiL  a.g.rafael@hotmail.com


   C                        G
e-------------------------------3-3-3--5--3---3-5-7-------
B-----5-5-5-------6-6-6-----------------------------------
G--5-----------5------------5-----------------------------
D---------------------------------------------------------
A---------------------------------------------------------
E---------------------------------------------------------

      Am        F              C         G             Am
e--------8-8-8-----10-10-10-------8-8-8-----7-7-7---7--5----
B -----5--------6--------------5---------5------------------
D-----------------------------------------------------------
A-----------------------------------------------------------
E-----------------------------------------------------------


espero que les guste ADIOS¡
RAFAEL AREVALO GIL





Esta es una transcripcion personal de un usuario de www.letrasyacordes.net - El material contenido en esta pagina es para exclusivo uso privado, quedando prohibida su reproduccion o retransmision, asi como su uso con fines comerciales.


Letras y Acordes punto net, el mejor sitio para encontrar y compartir letras de canciones, con sus correspondientes acordes para guitarra y piano. No te olvides de votar para calificar la calidad de las letras
Palabras utilizadas para encontrar esta página:
Elefante, DURMIENDO CON LA LUNA, letra y acordes de DURMIENDO CON LA LUNA de Elefante, canciones de Elefante, tocar con guitarra DURMIENDO CON LA LUNA, tocar con piano DURMIENDO CON LA LUNA, estudiar música
Ver más canciones de :

Elefante


 
{c} 2016 - letrasyacordes.net