Letras y Acordes |  Acordes |  musica y amigos |  Afinador | 
 
num  A  B  C  D  E  F  G  H  I  J  K  L  M  N  O  P  Q  R  S  T  U  V  W  X  Y  Z  

 

la Sirena Varada - Héroes del Silencio  

Links Patrocinados / Anuncios:

una_columnados_columnasaumentar_letrareducir_letravista_scrollver_impresionver_impresion_con_acordes | votar: ++++++---- | Puntaje actual: 6.00

Links Patrocinados

Links Patrocinados

calculadora de indice de masa corporal IMC

Links Patrocinados




Diccionario de Nombres



Guitarra

E||------0-------1-0-----0------0---|------0-------1-0----------3-0--|
B||------------------------0--1---1-|----------------------0-1-------|
G||----2---2---2-------2------------|----0---0---0-------2-----------|
D||---------------------------------|--------------------------------|
A||--0-------0-------0--------------|--------------------------------|
E||---------------------------------|--3-------3-------3-------------|



------0----0--------3----3----|--------8------8-8--8--8--8--8-------|
--------3----1----0---3----3--|------1-6------6-8---------------0---|
----2-----------0-------------|----2----------5----10-10-10-10--12--|
--3---------------------------|--3--------------10-10-10-10-10--12--|
------------------------------|---------------------------------10--|
------------------------------|-------------------------------------|



--0------------------------------------------|-------------------------------|
---------------------------------------------|-------------------8-----8---0-|
-------------12---------12----------12-------|----------------------7----7---|
--------10------12--10------12--10-----12-10-|--9-------------9--------------|
-----12--------------------------------------|----10------10-----------------|
---------------------------------------------|-------10----------------------|



------------3-------3--------3-----|-----------3------------3-----|
--------------3--1-----3--1----3-1-|--0-----------3-0----3----3-0-|
--------5--------------------------|----0---0---------0-----------|
--7---7----------------------------|------0-----------------------|
----7------------------------------|------------------------------|
-----------------------------------|------------------------------|



--1--1-1--1--1--1--1-1-1-1-1-|--5--5-5--5--5---5-5-5-5-5-5-|
--1--1-1--1--1--1--1-1-1-1-1-|--5--5-5--5--5---5-5-5-5-5-5-|
--2--2-2--2--2--2--2-2-2-2-2-|--5--5-5--5--5---5-5-5-5-5-5-|
--3--3-3--3--3--3--3-3-3-3-3-|--7--7-7--7--7---7-7-7-7-7-7-|
-----------------------------|-----------------------------|
-----------------------------|-----------------------------|



--3--3-3--3--3-3--3-3-3-3-3-3-|--3---3--3---3---3-3-3---|------------------|
--1--1-1--1--1-1--1-1-1-1-1-1-|--3---3--3---3---3-3-3---|------------------|
--2--2-2--2--2-2--2-2-2-2-2-2-|--0---0--0---0---0-0-0---|------------------|
--3--3-3--3--3-3--3-3-3-3-3-3-|--0---0--0---0---0-0-0---|------------------|
------------------------------|--2---2--2---2---2-2-2---|------------------|
------------------------------|--3---3--3---3---3-3-3---|------------------|



------------------|--0--------3-------3--------3-----|
------------------|-------1-----3--1-----3--1----3-1-|
------------------|-----2----------------------------|
------------------|----------------------------------|
------------------|----------------------------------|
------------------|----------------------------------|



----------------3-----3-----|------------3-------3--------3-----|
--0----------0-----3----3-0-|--------1-----3--1-----3--1----3-1-|
----0-----0-----------------|--2---2----------------------------|
------0---------------------|----2------------------------------|
----------------------------|-----------------------------------|
----------------------------|-----------------------------------|



-----------3------------3-----|--1--1-1--1--1--1--1-1-1-1-1-|
--0-----------3-0----3----3-0-|--1--1-1--1--1--1--1-1-1-1-1-|
----0---0---------0-----------|--2--2-2--2--2--2--2-2-2-2-2-|
------0-----------------------|--3--3-3--3--3--3--3-3-3-3-3-|
------------------------------|-----------------------------|
------------------------------|-----------------------------|



--5--5-5--5--5---5-5-5-5-5-5-|--3--3-3--3--3-3--3-3-3-3-3-3-|
--5--5-5--5--5---5-5-5-5-5-5-|--1--1-1--1--1-1--1-1-1-1-1-1-|
--5--5-5--5--5---5-5-5-5-5-5-|--2--2-2--2--2-2--2-2-2-2-2-2-|
--7--7-7--7--7---7-7-7-7-7-7-|--3--3-3--3--3-3--3-3-3-3-3-3-|
-----------------------------|------------------------------|
-----------------------------|------------------------------|



--3---3--3---3---3-3-3---|------------------|------------------|
--3---3--3---3---3-3-3---|------------------|------------------|
--0---0--0---0---0-0-0---|------------------|------------------|
--0---0--0---0---0-0-0---|------------------|------------------|
--2---2--2---2---2-2-2---|------------------|------------------|
--3---3--3---3---3-3-3---|------------------|------------------|



------0----0-0-0-0-0-----|--3---3----3-3--3-3--3-3-3-|
------1----1-1-1-1-1-----|--3---3----3-3--3-3--3-3-3-|
--0---0----0-0-0-0-0-----|--0---0----0-0--0-0--0-0-0-|
--2---2----2-2-2-2-2-----|--0---0----0-0--0-0--0-0-0-|
--3----------------------|--2---2----2-2--2-2--2-2-2-|
-------------------------|--3---3----3-3--3-3--3-3-3-|



-------0-------0-1--0------|---------------1-8-----8----|
-----1------1----------1---|-------1-----1------8----8--|
--2-------2----------------|-----2-----2----------------|
---------------------------|--3-------------------------|
---------------------------|----------------------------|
---------------------------|----------------------------|



-----------------------------|----------3---3-----------3-|
-----------------------------|--0----3-----------0----3---|
------9----------9-----------|--0--0-----------0----0-----|
---------10---------10-------|--0-------------------------|
-------------10---------10---|----------------------------|
--8--------------------------|--3-------------------------|



--0---------0-5---------|----------3--------3------3-|--3----3-3-3-------0--1-|
--1----1--1-1-5---------|--1----1--------1-------1---|--3------3-3-------1--1-|
--2--2--------5---------|--2--2--------2-------2-----|--0--------0-------0--2-|
------------------------|--3-------------------------|--0-------------------3-|
------------------------|----------------------------|-------------------3--3-|
------------------------|----------------------------|--3---------------------|



----------1-1-1-1--1---|--0--------3-------3--------3-----|
----------1-1-1-1--1---|-------1-----3--1-----3--1----3-1-|
----------2-2-2-2--2---|-----2----------------------------|
----------3-3-3-3--3---|----------------------------------|
----------3-3-3-3--3---|----------------------------------|
-----------------------|----------------------------------|



----------------3-----3-----|------------3-------3--------3-----|
--0----------0-----3----3-0-|--------1-----3--1-----3--1----3-1-|
----0-----0-----------------|--2---2----------------------------|
------0---------------------|----2------------------------------|
----------------------------|-----------------------------------|
----------------------------|-----------------------------------|



-----------3------------3-----|--1--1-1--1--1--1--1-1-1-1-1-|
--0-----------3-0----3----3-0-|--1--1-1--1--1--1--1-1-1-1-1-|
----0---0---------0-----------|--2--2-2--2--2--2--2-2-2-2-2-|
------0-----------------------|--3--3-3--3--3--3--3-3-3-3-3-|
------------------------------|-----------------------------|
------------------------------|-----------------------------|



--5--5-5--5--5---5-5-5-5-5-5-|--3--3-3--3--3-3--3-3-3-3-3-3-|
--5--5-5--5--5---5-5-5-5-5-5-|--1--1-1--1--1-1--1-1-1-1-1-1-|
--5--5-5--5--5---5-5-5-5-5-5-|--2--2-2--2--2-2--2-2-2-2-2-2-|
--7--7-7--7--7---7-7-7-7-7-7-|--3--3-3--3--3-3--3-3-3-3-3-3-|
-----------------------------|------------------------------|
-----------------------------|------------------------------|



--3---3--3---3---3-3-3---|------0-------1-0-----------0---|
--3---3--3---3---3-3-3---|-----------------------0--1---1-|
--0---0--0---0---0-0-0---|----2---2---2--------2----------|
--0---0--0---0---0-0-0---|--------------------------------|
--2---2--2---2---2-2-2---|--0-------0-------0-------------|
--3---3--3---3---3-3-3---|--------------------------------|



------0-------0------0-1--3-1-0-|------0----0---------1----3-----|
--1-1---1-1-1---3-1-------------|--------1----1-----0---3----3-0-|
--------------------------------|----2----------2-0--------------|
--------------------------------|--3-----------------------------|
--------------------------------|--------------------------------|
--------------------------------|--------------------------------|



--0---0--0--0--0--0-0-0-0--|--0---0--0---0---0--0---|--0---0--0---0---0--0---|
--1---1--1--1--1--1-1-1-0--|--1---1--1---1---1--1---|--0---0--0---0---0--0---|
--2---2--2--2--2--2-2-2-0--|--0---0--0---0---0--0---|--0---0--0---0---0--0---|
--3---3--3--3--3--3-3-3-0--|--2---2--2---2---2--2---|--2---2--2---2---2--2---|
---------------------------|--3---3--3---3---3--3---|--2---2--2---2---2--2---|
---------------------------|------------------------|--0---0--0---0---0--0---|



--0---0--0---0---0--0--0-|--0---0--0---0---0--0---|--1---1--1---1---1--1---|
--1---1--1---1---1--1--0-|--0---0--0---0---0--0---|--3---3--3---3---3--3---|
--2---2--2---2---2--0--0-|--0---0--0---0---0--0---|--2---2--2---2---2--2---|
--2---2--2---2---2--2--2-|--2---2--2---2---2--2---|--0---0--0---0---0--0---|
--0---0--0---0---0--3--2-|--2---2--2---2---2--2---|------------------------|
-----------------------0-|--0---0--0---0---0--0---|------------------------|



--3---3--3---3---3--3---|--0---0--0---0---0--0---|--0---0--0---0---0--0--0-|
--0---0--0---0---0--0---|--1---1--1---1---1--1---|--1---1--1---1---1--1--1-|
--0---0--0---0---0--0---|--2---2--2---2---2--2---|--2---2--2---2---2--2--2-|
--0---0--0---0---0--0---|--2---2--2---2---2--2---|--2---2--2---2---2--2--2-|
--2---2--2---2---2--2---|--0---0--0---0---0--0---|--0---0--0---0---0--0--0-|
--3---3--3---3---3--3---|------------------------|-------------------------|



--1---1--1---3---3--3--3-|--0---0-0-0--1---1-1-1-0--3-|
--3---3--3---0---0--0--0-|--1---1-1-1--1---1-1-1-1--0-|
--2---2--2---0---0--0--0-|--2---2-2-0--2---2-2-2-0--0-|
--0---0--0---0---0--0--0-|--2---2-2-2--3---3-3-3-2--0-|
-------------2---2--2--2-|--0---0-0-3--3---3-3-3-3--2-|
-------------3---3--3--3-|-------------1---1-1-1----3-|



----3-3-3-3-3-3-3-3-3-3-3-0--0-|----0-0-0-0-0-0-0-0-0-0-0-0--3-|
----0-0-0-0-0-0-0-0-0-0-0-1--1-|----1-1-1-1-1-1-1-1-1-1-1-1--0-|
----0-0-0-0-0-0-0-0-0-0-0-0--2-|----2-2-2-2-2-2-2-2-2-2-2-0--0-|
----0-0-0-0-0-0-0-0-0-0-0-2--2-|----2-2---2-2-2-2-2-2-2-2-2--0-|
----2-2-2-2-2-2-2-2-2-2-2-3--0-|----0-0-0-0-0-0-0-0-0-0-0-3--2-|
----3-3-3-3-3-3-3-3-3-3-3------|-----------------------------3-|



----3-3-3-3-3-3-3-3-3-3-3-0--0-|----------------------|------------------|
----0---0-0-0-0-0-0-0-0-0-1--1-|----------------------|------------------|
----0---0-0-0-0-0-0-0-0-0-0--2-|----------------------|------------------|
----0---0-0-0-0-0-0-0-0-0-2--2-|----------------------|------------------|
----2---2-2-2-2-2-2-2-2-2-3--0-|----------------------|------------------|
----3---3-3-3-3-3-3-3-3-3------|----------------------|------------------|



----------------------|--------------|------------------|------------------|
----------------------|--------------|------------------|------------------|
----------------------|--------------|------------------|------------------|
----------------------|--------------|------------------|------------------|
----------------------|--------------|------------------|------------------|
----------------------|--------------|------------------|------------------|



------------------|------------------|------0-------1-0-----------0---|
------------------|------------------|-----------------------0--1---1-|
------------------|------------------|----2---2---2--------2----------|
------------------|------------------|--------------------------------|
------------------|------------------|--0-------0-------0-------------|
------------------|------------------|--------------------------------|



------0-------1-0---------3-0---|------0----0--------3----3----|
--1-1---1-1-1--------0-1------1-|--------3----1----0---3----3--|
------------------2-------------|----2-----------0-------------|
--------------------------------|--3---------------------------|
--------------------------------|------------------------------|
--------------------------------|------------------------------|



------1-8---------8--------|------0------------------|
----1------8--6------8-6---|-----------5-5-5-5-5-----|
---------------------------|--0---5----5-5-5-5-5-----|
--3------------------------|------5----5-5-5-5-5-----|
---------------------------|--7---7----7-7-7-7-7-----|
---------------------------|--8----------------------|



--3---3----3-3--3-3--3-3-3-|-------0-------0-1--0------|
--3---3----3-3--3-3--3-3-3-|-----1------1----------1---|
--0---0----0-0--0-0--0-0-0-|--2-------2----------------|
--0---0----0-0--0-0--0-0-0-|---------------------------|
--2---2----2-2--2-2--2-2-2-|---------------------------|
--3---3----3-3--3-3--3-3-3-|---------------------------|



---------------1-8-----8----|-----------------------------|
-------1-----1------8----8--|-----------------------------|
-----2-----2----------------|------9----------9-----------|
--3-------------------------|---------10---------10-------|
----------------------------|-------------10---------10---|
----------------------------|--8--------------------------|



----------3---3-----------3-|--0---------0-5---------|
--0----3-----------0----3---|--1----1--1-1-5---------|
--0--0-----------0----0-----|--2--2--------5---------|
--0-------------------------|------------------------|
----------------------------|------------------------|
--3-------------------------|------------------------|



----------3--------3------3-|--3----3-3-3-------0--1-|------------------|
--1----1--------1-------1---|--3------3-3-------1--1-|------------------|
--2--2--------2-------2-----|--0--------0-------0--2-|------------------|
--3-------------------------|--0-------------------3-|------------------|
----------------------------|-------------------3--3-|------------------|
----------------------------|--3---------------------|------------------|



--1--1-1--1-1-1-3--3-3--3-3-3-|--0----------------|------------------||
--1--1-1--1-1-1-0--0-0--0-0-0-|--1----------------|------------------||
--2--2-2--2-2-2-0--0-0--0-0-0-|--0----------------|------------------||
--3--3-3--3-3-3-0--0-0--0-0-0-|--2----------------|------------------||
--3--3-3--3-3-3-2--2-2--2-2-2-|--3----------------|------------------||
--1--1-1--1-1-1-3--3-3--3-3-3-|-------------------|------------------||





Esta es una transcripcion personal de un usuario de www.letrasyacordes.net - El material contenido en esta pagina es para exclusivo uso privado, quedando prohibida su reproduccion o retransmision, asi como su uso con fines comerciales.


Articulo Destacado: Un video de un muchacho virtuoso

 
Una verdadera joyita lo que hace este muchacho con la guitarra
 
Letras y Acordes punto net, el mejor sitio para encontrar y compartir letras de canciones, con sus correspondientes acordes para guitarra y piano. Registrate en nuestro foro y enterate cómo agregar tus propias transcripciones. No te olvides de votar para calificar la calidad de las letras
Palabras utilizadas para encontrar esta página:
Héroes del Silencio, la Sirena Varada, letra de la Sirena Varada de Héroes del Silencio, letras, letra, acordes, canciones, letras de cancion, lyrics, cancion, grupo, banda, cantante, tablatura, partitura, tocar con guitarra, tocar con piano, tocar con bajo, armónica, teclado, bajo, ejecutar, estudiar música
Ver más canciones de :

Héroes del Silencio


 
{c} 2007 / 2011 - letrasyacordes.net