Letras y Acordes |  Acordes |  Afinador |  IMC |  num A B C D E F G H I J K L M N O P Q R S T U V W X Y Z 
 

 

Maldito Duende - Héroes del Silencio  

Links Patrocinados / Anuncios:

una_columnados_columnasaumentar_letrareducir_letravista_scrollver_impresionver_impresion_con_acordes | votar: ++++++---- | Puntaje actual: 6.00

Links Patrocinados

Links Patrocinados

calculadora de indice de masa corporal IMC

Links Patrocinados




Diccionario de Nombres



HEROES DEL SILENCIO
      " MALDITO DUENDE "

Transcripci¢n por ADALBERTO LOPEZ ESCUTIA
       MORELIA, MICHOACAN, MEXICO
INTRO:

FEEDBACK

  1 Guitarra con distorsion "ligera", y Chorus
e|-------------------------------------------------------------|
B|-------------------------------------------------------------|
G|-------------------------------------------------------------|
D|-9-----9---9-----7-----9---9-----9-----9---9-----7-----9---9-|
A|---9-----9---9-----9-----9---9-----9-----9---9-----9-----9---|
E|-----7---------7-----7---------7-----7---------7-----7-------|


VERSOS:
 2 Guitarras: una "limpia", y otra con CHORUS, sin dist.
RIFF 1:
||-----------------|----------------|-------3--------|-------3--------|
||--------8--7-----|-------8--7-----|----------5-3---|----------5-3---|
||o-----9------9---|-----9------9---|-----5--------5-|-----5--------5-|
||o---9----------9-|---9----------9-|---5------------|---5------------|
||--7--------------|-7--------------|-3--------------|-3--------------|
||-----------------|----------------|----------------|----------------|

|-----------------5-----------|-----------------2------------||
|---------7---------7---7-----|---------3---------3---3------||
|-----7-----7---------7---7---|-----4-----4---------4---4---o||
|---7---7-----7-------------7-|---4---4-----4-------------4-o||
|-5-------------5-------------|-2-------------2--------------||
|-----------------------------|------------------------------||


ESTRIBILLO:  (...amanece tan pronto...)
  2 Guitarras: 1. arpegeo (dist. "ligera", Chorus)  2. rasgueo (Cho.)
  RIFF 2:
||-----------------|----------------|---------------|---------------|
||--------8--7-----|-------8--7-----|---------------|-3-------------|
||o-----9------9---|-----9------9---|-------4-------|---4-----4-----|
||o---9----------9-|---9----------9-|-----5---5-----|-----5-----5---|
||--7--------------|-7--------------|---5-------5---|-------5-----5-|
||-----------------|----------------|-3-----------3-|---------------|

|-----------------5-----------|-----------------2------------||
|---------7---------7---7-----|---------3---------3---3------||
|-----7-----7---------7---7---|-----4-----4---------4---4---o||
|---7---7-----7-------------7-|---4---4-----4-------------4-o||
|-5-------------5-------------|-2-------------2--------------||
|-----------------------------|------------------------------||

INTERLUDE:
  2 Guitarras: 1. arpegeo ( Chorus)  2. rasgueo (Cho.)

  RIFF 3:                   p    p             p   p              p
||-----------------|------10-7-10-7----|------5-8-5-8---|------5-7-5------||
||--------8---8----|7---------------7--|5--------------5|----7-------7----||
||o-----9---9---9--|--7---------------7|--5-------------|--7-----------7-o||
||o---9-----------9|----7--------------|----5-----------|7---------------o||
||--7--------------|-------------------|----------------|-----------------||
||-----------------|-------------------|----------------|-----------------||


DESPUES DE INTERLUDE:
   ( ... ooOOoOO...)
  2 Guitarras: 1. arpegeo ( Chorus)  2. rasgueo (Cho.)
  RIFF: 4
||-----------------|----------------|---------------|---------------|
||--------8--7-----|-------8--7-----|-------3-2-----|-------3-2-----|
||o-----9------9---|-----9------9---|-----4-----4---|-----4-----4---|
||o---9----------9-|---9----------9-|---4---------4-|---4---------4-|
||--7--------------|-7--------------|-2-------------|-2-------------|
||-----------------|----------------|---------------|---------------|

 s             s
|-----------------------------|----------------------------||
|-----------------------------|---------------7------------||
|-------------7-------------7-|---------7-------7---7-----o||
|-----5-----7-------5-----7---|-----9-----9-------9---9---o||
|---5---3-5-------5---3-5-----|---9---9-----9-----------9--||
|-3-------------3-------------|-7--------------------------||


RIFF 1

RIFF 2

RIFF 3

FIN

Comentarios dudas o correcciones:
z304@ventas.gnp.com.mx  ADALBERTO LOPEZ ESCUTIA
VIVA MEXICO !





Esta es una transcripcion personal de un usuario de www.letrasyacordes.net - El material contenido en esta pagina es para exclusivo uso privado, quedando prohibida su reproduccion o retransmision, asi como su uso con fines comerciales.


Letras y Acordes punto net, el mejor sitio para encontrar y compartir letras de canciones, con sus correspondientes acordes para guitarra y piano. No te olvides de votar para calificar la calidad de las letras
Palabras utilizadas para encontrar esta página:
Héroes del Silencio, Maldito Duende, letra y acordes de Maldito Duende de Héroes del Silencio, canciones de Héroes del Silencio, tocar con guitarra Maldito Duende, tocar con piano Maldito Duende, estudiar música
Ver más canciones de :

Héroes del Silencio


 
{c} 2016 - letrasyacordes.net