Letras y Acordes |  Acordes |  Afinador |  IMC |  num A B C D E F G H I J K L M N O P Q R S T U V W X Y Z 
 

 

GRITA - Jarabe de Palo  

Links Patrocinados / Anuncios:

una_columnados_columnasaumentar_letrareducir_letravista_scrollver_impresionver_impresion_con_acordes | votar: ++++++---- | Puntaje actual: 6.00

Links Patrocinados

Links Patrocinados

calculadora de indice de masa corporal IMC

Links Patrocinados




Diccionario de Nombres



GRITA (Jarabe de Palo)

Hace dias que te observo
E|--------------------------------------------------0-5-5-0-----------
A|----------------------------------------------------------2---------
D|-----3----------------2------------2-------2-3----------------------
G|-------3------------3------------2---0---0--------------------------

Haces dias que me fijo….
E|--------------------------------------------------------------------
A|-------------------------------0-2------------2---------------------
D|---------------0-2---------2-2--------------------------------------
G|-----3-----3-3----------------------------------0-------------------

ESTRIBILLO
E|----------------------------------------------
A|--------------0-------0-2---------2-----------  x2
D|-----0-3----3-----------------------0-------0-
G|----------------------------------------------


SE REPITE TODO


Solo de guitarra

E|-----------------------------------------------
A|-----------------------2-------2--------------- X2
D|------------2--------2-----------0-------------
G|---3------3------------------------------------


Hace tiempo alguien me dijo
No tocar

Luego se entra en el estribillo.





Esta es una transcripcion personal de un usuario de www.letrasyacordes.net - El material contenido en esta pagina es para exclusivo uso privado, quedando prohibida su reproduccion o retransmision, asi como su uso con fines comerciales.


Letras y Acordes punto net, el mejor sitio para encontrar y compartir letras de canciones, con sus correspondientes acordes para guitarra y piano. No te olvides de votar para calificar la calidad de las letras
Palabras utilizadas para encontrar esta página:
Jarabe de Palo, GRITA, letra y acordes de GRITA de Jarabe de Palo, canciones de Jarabe de Palo, tocar con guitarra GRITA, tocar con piano GRITA, estudiar música
Ver más canciones de :

Jarabe de Palo


 
{c} 2016 - letrasyacordes.net