Letras y Acordes |  Acordes |  Afinador |  IMC |  num A B C D E F G H I J K L M N O P Q R S T U V W X Y Z 
 

 

Secreto de amor || Joan Sebastian  

Links Patrocinados / Anuncios:

una_columnados_columnasaumentar_letrareducir_letravista_scrollver_impresionver_impresion_con_acordes | votar: ++++++---- | Puntaje actual: 6.00

Links Patrocinados

Links Patrocinados

calculadora de indice de masa corporal IMC

Links Patrocinados





Esta cancion esta hoy aqui por que mi padre me pidio que la tocara para su cumple...
y pues aqui esta, disfrutenla!!

                           SECRETO DE AMOR
                            Joan Sebastian

Transcrita por: Nestor Sadao Arechiga Cervantes

La afinacion del Bajo es normal(E A D G)
Empezamos!!!

  Q=95
 4/4
  Gtr I
  W          W          W          W
|----------|----------|----------|------|
|----------|----------|----------|------|
|----------|----------|----------|------|
|----------|----------|----------|------|


  W          W          W          W
|----------|----------|----------|------|
|----------|----------|----------|------|
|----------|----------|----------|------|
|----------|----------|----------|------|


  W          W          W          W
|----------|----------|----------|------|
|----------|----------|----------|------|
|----------|----------|----------|------|
|----------|----------|----------|------|


                        Q=90
  W          W          Q  +S  S S S Q.   E   Q  E S S Q  +S  S E
|----------|----------|---------------------|---------------------|
|----------|----------|---------------------|-1----1---1--(1)-----|
|----------|----------|-1--(1)---1---1------|---------------------|
|----------|----------|---------------------|---------------------|


  Q  E S S Q.   E   Q  +S  S S S Q.   E   Q  +S  S S S Q  Q
|-----------------|---------------------|---------------------|
|-3----3---3------|-3--(3)---3---3------|-5--(5)---5---5------|
|-----------------|---------------------|-----------------4---|
|-----------------|---------------------|---------------------|


  Q  +S  S S S Q.   E   Q  +S  S S S Q.   E   E E Q  H
|---------------------|---------------------|-------------|
|---------------------|-3--(3)---3---3------|-3-----------|
|-3--(3)---3---3------|---------------------|-------------|
|---------------------|---------------------|-------------|


  Q=95
  Q  E S S Q  +S  S S S   Q  +S  S S S Q  +S  S S S   Q  E S S Q  +S  S S S
|-----------------------|---------------------------|------------------------|
|----------5--(5)---5---|--------------5--(5)---5---|-3----3-----------------|
|-3----3----------------|-3--(3)---3----------------|----------3--(3)---3----|
|-----------------------|---------------------------|------------------------|


  Q  +S  S S S Q  Q    Q  +S  S S S Q  +S  S S S   Q  E S S Q  E E
|--------------------|---------------------------|-----------------|
|-3--(3)---3------3--|--------------3--(3)---3---|----------3------|
|--------------3-----|-1--(1)---1----------------|-1----1------1---|
|--------------------|---------------------------|-----------------|


  Q  +S  S S S Q  +S  S S S   S S E Q  H      Q  +S  S S S Q.   E
|---------------------------|---------------|---------------------|
|-1--(1)---1----------------|-1-------------|----------3---3------|
|--------------1--(1)---1---|---------------|-1--(1)--------------|
|---------------------------|---------------|---------------------|


  Q  +S  S S S Q  E E   Q  +S  S S S Q  +S  S S S   Q  +S  S S S Q  E E
|---------------------|---------------------------|----------------------|
|-1--(1)----------1---|-3--(3)---3----------------|-3--(3)---3------3----|
|----------1---1------|--------------3--(3)---3---|--------------3-------|
|---------------------|---------------------------|----------------------|


                                                    Q=98
  Q  +S  S S S Q  +S  S S S   Q  +S  S S S Q  E E   Q  E S S S S S S S S S S
|---------------------------|---------------------|------------------5-------|
|--------------5--(5)---5---|--------------5------|-3----3-------------------|
|-3--(3)---3----------------|-3--(3)---3------3---|----------3---3-------3---|
|---------------------------|---------------------|--------------------------|


  Q=100
  Q  +S  S S S Q  S S S S   Q  +S  S S S S S S S S S S S
|----------5--------------|----------5-------5------------|
|-3--(3)----------3---4---|-5--(5)------------------------|
|--------------3----------|--------------3-------3---3----|
|-------------------------|-------------------------------|


  Q  +S  S S S S S S S S S S S   Q  +S  S S S S S S S S S S S
|----------5-------5-----------|----------5-------5-----------|
|-5--(5)-----------------------|-3--(3)-----------------------|
|--------------3-------3---3---|--------------3-------3---3---|
|------------------------------|------------------------------|


  Q  +S  S S S Q  S S S S   Q  +S  S S S S S S S S S S S
|----------5--------------|----------5-------5------------|
|-3--(3)----------3---4---|-5--(5)------------------------|
|--------------3----------|--------------3-------3---3----|
|-------------------------|-------------------------------|


                                                               2/4
  Q  +S  S S S S S S S S S S S   Q  +S  S S S S S S S S S S S   Q  S S S S
|----------5-------5-----------|----------5-------5-----------|------------|
|-5--(5)-----------------------|-3--(3)-----------------------|-3------3---|
|--------------3-------3---3---|--------------3-------3---3---|----3-------|
|------------------------------|------------------------------|------------|


 4/4
  E E S S E +S  S S S S S S S   Q  S S E +S  S S S S S S S
|-----------------------------|----------------------------|
|-----5-----------5-----------|----5-----------5-----------|
|-3---------------------------|-3--------------------------|
|---------3-(3)-------3---3---|--------3-(3)-------3---3---|


                                                             2/4
  E E S S E +S  S S S S S S S   E E S S E +S  S S S S S S S   Q  S S S S
|-----5-----------5-----------|-----5-----------5-----------|------------|
|-3---------------------------|-3---------------------------|-3------3---|
|---------3-(3)-------3---3---|---------3-(3)-------3---3---|----3-------|
|-----------------------------|-----------------------------|------------|


 4/4
  Q  S S E +S  S S S S S S S   Q  S S E +S  S S S S S S S
|----------------------------|----------------------------|
|----5-----------5-----------|----5-----------5-----------|
|-3--------------------------|-3--------------------------|
|--------3-(3)-------3---3---|--------3-(3)-------3---3---|


  Q  S S E +S  S S S S S S S   Q  S S E +S  S S S S S S S
|----5-----------5-----------|----5-----------5---5--------|
|-3--------------------------|-3----------------------3----|
|--------3-(3)-------3---3---|--------3-(3)----------------|
|----------------------------|-----------------------------|


  E E S S E +S  S S S S S S S   Q  S S E +S  S S S S S S S   Q  Q  H
|-----------------------------|----------------------------|------------|
|-----5-----------5-----------|----5-----------5-----------|-3----------|
|-3---------------------------|-3--------------------------|------------|
|---------3-(3)-------3---3---|--------3-(3)-------3---3---|------------|


  Q=93
  Q  +S  S S S Q  E E   Q  +S  S S S E E S S S S   Q  +S  S S S Q  E E
|-----------------3---|--------------------------|----------------------|
|----------3---3------|-1--(1)---1-------1-------|-3--(3)---3-----------|
|-1--(1)--------------|--------------1-------1---|--------------3--3----|
|---------------------|--------------------------|----------------------|


  Q  +S  S S S Q  Q    Q  E S S Q  Q    Q  E S S S S S S S S S S
|--------------------|----------------|---------------------------|
|-3--(3)---3------3--|-5----5---5-----|---------------------------|
|--------------3-----|-------------4--|-3----3---3---1------------|
|--------------------|----------------|------------------4---3----|


  Q=98                       Q=100
  Q  +S  S S S E S S E S S   Q  S S E +S  S S S S S S S
|----------------3---1-0---|----5-----------5-----------|
|-3--(3)-------3-----------|-3--------------------------|
|----------3---------------|--------3-(3)-------3---3---|
|--------------------------|----------------------------|


  Q  S S E +S  S S S S S S S   Q  S S E +S  S S S S S S S
|----5-----------5-----------|----5-----------5------------|
|-5--------------------------|-5---------------------------|
|--------3-(3)-------3---3---|--------3-(3)-------3---3----|
|----------------------------|-----------------------------|


  Q  S S E +S  S S S S S S S   Q  S S E +S  S S S S S S S
|----5-----------5-----------|----5-----------5------------|
|-3--------------------------|-3---------------------------|
|--------3-(3)-------3---3---|--------3-(3)-------3---3----|
|----------------------------|-----------------------------|


  Q  S S E +S  S S S S S S S   Q  S S E +S  S S S S S S S
|----5-----------5-----------|----5-----------5------------|
|-5--------------------------|-5---------------------------|
|--------3-(3)-------3---3---|--------3-(3)-------3---3----|
|----------------------------|-----------------------------|


                               Q=103
                              2/4          4/4
  Q  S S E +S  S S S S S S S   Q  S S S S   E E S S E +S  S S S S S S S
|----5-----------5-----------|------------|------------------------------|
|-3--------------------------|-3------3---|-----5-----------5------------|
|--------3-(3)-------3---3---|----3-------|-3----------------------------|
|----------------------------|------------|---------3-(3)-------3---3----|


  Q  S S E +S  S S S S S S S   E E S S E +S  S S S S S S S
|----------------------------|-----5-----------5------------|
|----5-----------5-----------|-3----------------------------|
|-3--------------------------|---------3-(3)-------3---3----|
|--------3-(3)-------3---3---|------------------------------|


                              2/4           4/4
  Q  S S E +S  S S S S S S S   E E S S S S   E E S S E +S  S S S S S S S
|----5-----------5-----------|-------------|------------------------------|
|-3--------------------------|-3-------3---|-----5-----------5------------|
|--------3-(3)-------3---3---|-----3-------|-3----------------------------|
|----------------------------|-------------|---------3-(3)-------3---3----|


  Q  S S E +S  S S S S S S S   E E S S E +S  S S S S S S S
|----------------------------|-----5-----------5---5--------|
|----5-----------5-----------|-3-----------------------3----|
|-3--------------------------|---------3-(3)----------------|
|--------3-(3)-------3---3---|------------------------------|


  E E S S E +S  S S S S S S S   Q  S S E E S S S S S S
|-----5-----------5-----------|------------------------|
|-3-------------------3---3---|----5-------5-----------|
|---------3-(3)---------------|-3----------------------|
|-----------------------------|--------3-------3---3---|


                                            Q=93
  Q  S S E +S  S S S S S S S   Q  Q  H      W          W
|----------------------------|------------|----------|------|
|----5-----------5-----------|-3----------|----------|------|
|-3--------------------------|------------|----------|------|
|--------3-(3)-------3---3---|------------|----------|------|


  W          W          W          W
|----------|----------|----------|------|
|----------|----------|----------|------|
|----------|----------|----------|------|
|----------|----------|----------|------|


             Q=103
  W          W          E E S S E +S  S S S S S S S
|----------|----------|-----5-----------5------------|
|----------|----------|-3----------------------------|
|----------|----------|---------3-(3)-------3---3----|
|----------|----------|------------------------------|


  Q  S S E +S  S S S S S S S   Q  S S E +S  S S S S S S S
|----5-----------5-----------|----5-----------5------------|
|-5--------------------------|-5---------------------------|
|--------3-(3)-------3---3---|--------3-(3)-------3---3----|
|----------------------------|-----------------------------|


  Q  S S E +S  S S S S S S S   E E S S E +S  S S S S S S S
|----5-----------5-----------|-----5-----------5------------|
|-3--------------------------|-3----------------------------|
|--------3-(3)-------3---3---|---------3-(3)-------3---3----|
|----------------------------|------------------------------|


  Q  S S E +S  S S S S S S S   Q  S S E +S  S S S S S S S
|----5-----------5-----------|----5-----------5------------|
|-5--------------------------|-5---------------------------|
|--------3-(3)-------3---3---|--------3-(3)-------3---3----|
|----------------------------|-----------------------------|


  Q  S S E +S  S S S S S S S   Q  S S E +S  S S S S S S S
|----5-----------5-----------|----5-----------5------------|
|-3--------------------------|-3---------------------------|
|--------3-(3)-------3---3---|--------3-(3)-------3---3----|
|----------------------------|-----------------------------|


  E E S S E +S  S S S S S S S   Q  S S E +S  S S S S S S S
|-----5-----------5-----------|----5-----------5------------|
|-5---------------------------|-5---------------------------|
|---------3-(3)-------3---3---|--------3-(3)-------3---3----|
|-----------------------------|-----------------------------|


  E E S S E +S  S S S S S S S   Q  S S E +S  S S S S S S S
|-----5-----------5-----------|----5-----------5------------|
|-3---------------------------|-3---------------------------|
|---------3-(3)-------3---3---|--------3-(3)-------3---3----|
|-----------------------------|-----------------------------|


  Q  S S E E S S S S S S   Q  S S E E S S S S S S   E E E E E E E S S
|----5-------5-----------|----5-------5-----------|-------------------|
|-5----------------------|-5----------------------|---3---------------|
|--------3-------3---3---|--------3-------3---3---|-------3-----------|
|------------------------|------------------------|-----------4---3---|


  E E Q  H
|-------------*|
|-------------*|
|-------------*|
|-1-----------*|

FIN!!!
- BUENO AQUI ABAJO ESTA EL SIGNIFICADO DE LAS LETRAS Y LOS SIGNOS...
- ESPERO QUE LES HAYA AGRADADO Y SOBRETODO QUE LE HAYAN ENTENDIDO...
- POR SI ALGUNA RAZON NO LE ENTIENDEN PUES HECHENME UN MAIL A: sNaKePiTs@guitar.com
- SI QUIEREN ALGUNA PETICION PUES TAMBIEN HECHENME UN MAIL...
- ESTA CANCION Y OTRAS LAS TENGO EN ARCHIVOS POWERTAB, POR SI ALGUIEN LA QUIERE...
  PUES HECHENME UN MAIL PIDIENDOLAS...
- LOS VERE EN LA PROXIMA CANCION!!!...


NOTA!!!: PUEDEN UTILIZAR ESTA TAB PARA PUBLICARLA DONDE USTEDES
QUIERAN, PERO POR FAVOR LES RUEGO QUE ME DEN LOS CREDITOS COMO
TRANSCRIPTOR DE LA MISMA...GRACIAS!!!

NESTOR SADAO ARECHIGA CERVANTES (sNaKePiTs@guitar.com)


LEYENDA DE LAS NOTAS:

W = (REDONDA)     NOTA COMPLETA
H = (BLANCA)      MEDIA NOTA
Q = (NEGRA)       CUARTO DE NOTA
E = (CORCHEA)     OCTAVO DE NOTA
S = (SEMICORCHEA) DIECISEISAVA DE NOTA
T = (FUSA)        TREINTAIDOSAVA DE NOTA
X = (SEMIFUSA)    SESENTAICUATROAVA DE NOTA

a  =  ACCIACCATURA
+  =  LIGADURA
.  =  AUMENTA LA DURACION DE LA NOTA
.. =  AUMENTA LA DOBLE DE LA DURACION DE LA NOTA


LEYENDA DEL 'PENTAGRAMA'
 |  - COMPAS
||  - DOBLE COMPAS
||o - ES DONDE VA A COMENZAR CUANDO ALGO SE VA A REPETIR
o|| - ES DONDE VA A TERMINAR CUANDO ALGO SE VA A REPETIR
*|  - FIN DE LA CANCION
 :  - COMPAS LIBRE
 $  - SEGNO (AL VER ESTE SIGNO, TENEMOS QUE RETROCEDER HASTA VER EL SIGNO ANTERIOR $...)
 &  - CODA (SIGNIFICA QUE DEBES PASAR LA SIGUIENTE SIGNO &)





Esta es una transcripcion personal de un usuario de www.letrasyacordes.net - El material contenido en esta pagina es para exclusivo uso privado, quedando prohibida su reproduccion o retransmision, asi como su uso con fines comerciales.


Letras y Acordes punto net, el mejor sitio para encontrar y compartir letras de canciones, con sus correspondientes acordes para guitarra y piano. No te olvides de votar para calificar la calidad de las letras
Palabras utilizadas para encontrar esta página:
Joan Sebastian, Secreto de amor, letra y acordes de Secreto de amor de Joan Sebastian, canciones de Joan Sebastian, tocar con guitarra Secreto de amor, tocar con piano Secreto de amor, estudiar música
Ver más canciones de :

Joan Sebastian


 
{c} 2016 - letrasyacordes.net