Letras y Acordes |  Acordes |  Afinador |  IMC |  num A B C D E F G H I J K L M N O P Q R S T U V W X Y Z 
 

 

Odiame - Julio Jaramillo  

Links Patrocinados / Anuncios:

una_columnados_columnasaumentar_letrareducir_letravista_scrollver_impresionver_impresion_con_acordes | votar: +++------- | Puntaje actual: 3.50

Links Patrocinados

Links Patrocinados

calculadora de indice de masa corporal IMC

Links Patrocinados




Diccionario de Nombres



este es otro requinto que yo me se

este es el primero
e|------0-0-5-5-4-4-7-7-5-5-8-8-7-7-10-10-8-8-12-12-10-10-13-13-12-12-12-12-12-12-12-0-0-10-0-0-12-0-0-10-0-0-10-0-0-8-0-0-10-0-0-8-0-0|
b|0-1-3--------------------------------------------------------------------------------------------------------------------------------|

e|4-4-5-5-7-7-8-7-5----------|
b|------------------5--------|
g|--------------------5------|
d|----------------------7----|

parte de enmedio
e|-5/7--5/7--5/7--5/7--5/7--5/7--5-5------5-7-5--|
b|-6----6----6----6----6----6----6-6----6--------|
g|-7----7----7----7----7----7----7-7--7----------|

e|-5-5-5-----5-7-5-4-4-5-7-5-4-5-7-8-|
b|-5-5-5---5-------5-----------------|
g|-5-5-5-5---------4-----------------|

e|-5/7--5/7--5/7--5/7--5/7--5/7--5-5------5-7-5--|
b|-6----6----6----6----6----6----6-6----6--------|
g|-7----7----7----7----7----7----7-7--7----------|

e|-5-5-5-----5-7-5-4-4-5-7-5-4-5-------|
b|-5-5-5---5-------5-------------5-----|
g|-5-5-5-5---------4---------------5---|
d|-----------------------------------7-|

final:
e|-------0-0-5-5-4-4-7-7-5-4-5---|
b|-0-1-3-------------------------|


este es todo !!!!!!!!!!!!!!!!





Esta es una transcripcion personal de un usuario de www.letrasyacordes.net - El material contenido en esta pagina es para exclusivo uso privado, quedando prohibida su reproduccion o retransmision, asi como su uso con fines comerciales.


Letras y Acordes punto net, el mejor sitio para encontrar y compartir letras de canciones, con sus correspondientes acordes para guitarra y piano. No te olvides de votar para calificar la calidad de las letras
Palabras utilizadas para encontrar esta página:
Julio Jaramillo, Odiame, letra y acordes de Odiame de Julio Jaramillo, canciones de Julio Jaramillo, tocar con guitarra Odiame, tocar con piano Odiame, estudiar música
Ver más canciones de :

Julio Jaramillo


 
{c} 2016 - letrasyacordes.net