Letras y Acordes |  Acordes |  Afinador |  IMC |  num A B C D E F G H I J K L M N O P Q R S T U V W X Y Z 
 
ÔĽŅ
 

Ave de cristal || Kjarkas  

Links Patrocinados / Anuncios:

una_columnados_columnasaumentar_letrareducir_letravista_scrollver_impresionver_impresion_con_acordes | votar: +++++++++- | Puntaje actual: 9.00

Links Patrocinados

Links Patrocinados

calculadora de indice de masa corporal IMC

Links Patrocinados





Ritmo: Chuntunqui
Autor: Gonzalo Hermosa
Tono Original de la grabaci√≥n: Dm o Rem

    Esta canci√≥n se la dedico a Martha <
ense√Īarnos a amar, no olvides que habr√° otra persona que te ame>>‚Ķ.
Gracias por todo...

    No se lo pierdan el DVD de los Kjarkas, pr√≥ximamente el 10 de julio, del
2004 esta super...  con funciones de karaoke, las opciones en varios idiomas
y ademas en tema aparte canciones nuevas ¬°que mas se puede pedir!....



    Basta de bla bla ahora nos vamos a las especificaciones de la canci√≥n..
el signo ~ significa alargar el sonido, las demas son simbolo bien conocidos...
y si no las conoces averigua hombre averigua...

    Necesitamos capo en el 5¬ļ traste o solo toquen la canci√≥n en Rem
normal con las notas de las dem√°s colaboraciones de esta canci√≥n, yo
les recomiendo usar capo porque les ayudara en las partes de punteada...
por fin hagan lo que les venga en gana, pero t√≥quenla y ojo que les salga
bien... o sino mejor no la toquen.... no vaya a ser que me est√©n sacando
una nueva versi√≥n y eso se llama plagio.....

Arpegios: Esto lo de los arpegios va por toda la canci√≥n...

e |------------------|      P = Pulgar,
B |---------○a-------|      i = √ćndice,
G |-------○m--○m-----|      m = Medio
D |----○i-------○i---|      y por √ļltimo (no nos hagamos)
A |-○p---------------|      obviamente  a = Anular
E |------------------|

Por si no lo sab√≠an...(para los reci√©n iniciados)

Ahora si empezaremos... la canci√≥n va as√≠...

Intro en guitarra:

e --------------|
B -------6------|
G -----7---7----|
D ---7-------7--|
A -5------------|
E --------------| (esto se toca 4 veces en la versi√≥n en vivo, para
                   la grabaci√≥n en estudio son solo 2 veces)

-5~----------|---------5-6-8~-6-6-5-6~---|-10~--8-8-7-8~---|
----8-8-6-6~-|---5-6-8-------------------|-----------------|
-------------|-7-------------------------|-----------------|
-------------|---------------------------|-----------------|
-------------|---------------------------|-----------------|
-------------|---------------------------|-----------------|

-8-10-12-12-10-10-8-8h10-6-6h8-5-5h6p5---5-6-5~--|
---------------------------------------8---------|
-------------------------------------------------|
-------------------------------------------------|
-------------------------------------------------|
-------------------------------------------------|

---------------------------------|
-8-6-6/10~--8-6-6/11~---10-11-5--|
---------------------------------|
---------------------------------|
---------------------------------|
---------------------------------|


 Am                         Dm
No se acaba el mundo, cuando un amor se va,
 F                      Dm         E7
no se acaba el mundo y se derrumbar√°aaa,
 Am                          Dm
Si fue verdadero, tras sus hueeellas volver√°,
 G                       F           E7
si no fue sincero, otro lo reemplazar√°aaa.

 Am                         Dm
No se acaba el mundo, cuando un amor se va,
 F                         Dm         E7
no se acaba el mundo y no se derrumbar√°aaa,
 Am                                Dm
No hay lluvia en el alma, que no acabe con un sol,
G                             F          E7          Am
y se limpie el cielo, cuando deja de lloveeer de lloveeeer...


Am           Dm             G              C
Y es el coraz√≥ooon, como un aaaave de cristal,
                   F        Dm                  F          E7
que es tan fr√°gil deeee rompeeeer, tan dif√≠cil deeee entendeeeer...
Am           Dm              G                  C
Y es el coraz√≥ooon, tomo el deeeestino taaan crueeeel,
             F        Dm                 F        E7
tan dif√≠cil deeee torceeeer y tan f√°cil deeee perder...
        Am  G              Am
es el amor..       es el amor...


Intermedio y final en Zampo√Īa arreglada para guitarra:

e -6-5~--5~--10-10-8-8-6-6-5-6-8-6~---|-6-8-12-12~--10-10~--8-8---5-6-5~--|
B ------------------------------------|-------------------------8---------|
G ------------------------------------|-----------------------------------|
D ------------------------------------|-----------------------------------|
A ------------------------------------|-----------------------------------|
E ------------------------------------|-----------------------------------|

-----5~--6-5~--5~--10-10-8-8-6-6-5-6-8-6~--|
-8-6---------------------------------------|
-------------------------------------------|
-------------------------------------------|
-------------------------------------------|
-------------------------------------------|

6-8-15-15~--13-13-12-12-10-10-8-8---5-6-5~--|---------------12-10-12~--|
----------------------------------8---------|-8-6-10~------------------|
--------------------------------------------|---------9-7-9~-----------|
--------------------------------------------|--------------------------|
--------------------------------------------|--------------------------|
--------------------------------------------|--------------------------|

Ojo: Esta parte es solo para el final de la canci√≥n

e ---5----|
B ---6----|
G ---7----|
D ---7----|
A ---5----|
E ---5----| ... fin ...


Se repite toda la canci√≥n completa y termina con la parte en zampo√Īa m√°s
la partecita adjunta al final....

    Peticiones, correcciones, consultas, comentarios, consejos, reclamos,
pasiones, chismes, desamores, intrigas, declaraciones,
reconocimientos de hijos...jejeje, etc.
mi e-mail astron_ariel@msn.com.





Esta es una transcripcion personal de un usuario de www.letrasyacordes.net - El material contenido en esta pagina es para exclusivo uso privado, quedando prohibida su reproduccion o retransmision, asi como su uso con fines comerciales.


Letras y Acordes punto net, el mejor sitio para encontrar y compartir letras de canciones, con sus correspondientes acordes para guitarra y piano. No te olvides de votar para calificar la calidad de las letras
Palabras utilizadas para encontrar esta p√°gina:
Kjarkas, Ave de cristal, letra y acordes de Ave de cristal de Kjarkas, canciones de Kjarkas, tocar con guitarra Ave de cristal, tocar con piano Ave de cristal, estudiar m√ļsica
Ver m√°s canciones de :

Kjarkas


 
{c} 2016 - letrasyacordes.net