Letras y Acordes |  Acordes |  Afinador |  IMC |  num A B C D E F G H I J K L M N O P Q R S T U V W X Y Z 
 

 

Blanca navidad || Villancicos  

Links Patrocinados / Anuncios:

una_columnados_columnasaumentar_letrareducir_letravista_scrollver_impresionver_impresion_con_acordes | votar: ++++++---- | Puntaje actual: 6.07

Links Patrocinados

Links Patrocinados

calculadora de indice de masa corporal IMC

Links Patrocinados





aqui esta completa y se oye igualita si tienen mas canciones
pues mandandenmelas ok bueno bye y saludos a Erika yanine y a
paola magallanes que las quiero mucho


E------------------------------------------2------------
B------2-----------2-----------3-2---5-5-5---5-3---2----
G--------4-2---------4-2-----------3-------------4------
D--2-2-------2-2-2-------4-4-4--------------------------
A-------------------------------------------------------
E-------------------------------------------------------



E------------------------------------------2------------
B------2-----------2-----------3-2---5-5-5---5-3--------
G--------4-2---------4-2-----------3-------------4-2----
D--2-2-------2-2-2-------4-4-4--------------------------
A-------------------------------------------------------
E-------------------------------------------------------


E-------------------------------------------------------
B-2-2-2--2-2-2-2-5-----2-3-3-3-3-3-2-2-2-2-2-2-----2---5
G------------------2-4-------------------------4-4---4--
D-------------------------------------------------------
A-------------------------------------------------------
E-------------------------------------------------------


E------------------------------------------------------
B-2-2-2--2-2-2-2-5-----2-3-3-3-3-3-2-2-2-2-5-5-3-------
G------------------2-4---------------------------4-2---
D------------------------------------------------------
A------------------------------------------------------
E------------------------------------------------------





Esta es una transcripcion personal de un usuario de www.letrasyacordes.net - El material contenido en esta pagina es para exclusivo uso privado, quedando prohibida su reproduccion o retransmision, asi como su uso con fines comerciales.


Letras y Acordes punto net, el mejor sitio para encontrar y compartir letras de canciones, con sus correspondientes acordes para guitarra y piano. No te olvides de votar para calificar la calidad de las letras
Palabras utilizadas para encontrar esta página:
Villancicos, Blanca navidad, letra y acordes de Blanca navidad de Villancicos, canciones de Villancicos, tocar con guitarra Blanca navidad, tocar con piano Blanca navidad, estudiar música
Ver más canciones de :

Villancicos


 
{c} 2016 - letrasyacordes.net