Letras y Acordes |  Acordes |  Afinador |  IMC |  num A B C D E F G H I J K L M N O P Q R S T U V W X Y Z 
 

 

BALADA PARA ADELINA - Música Clasica  

Links Patrocinados / Anuncios:

una_columnados_columnasaumentar_letrareducir_letravista_scrollver_impresionver_impresion_con_acordes | votar: ++++++---- | Puntaje actual: 6.85

Links Patrocinados

Links Patrocinados

calculadora de indice de masa corporal IMC

Links Patrocinados




Diccionario de Nombres



espero ke les guste
                              C
E-------------------------|-------0-------0-------0-------0--
B-------3-------3-------3-|---------1-------1-------1-------1
G-----5-------5-------5---|-----0-------0-------0-------0----
D---5-------5-------5-----|----------------------------------
A-3-------3-------3-------|---3-------3-------3-------3------
E-------------------------|----------------------------------

    C                      Dm
E--0----0---------0---1|--1---1-------1-1-1-1-1-1-3|
B-----1---1-------1----|----3---3-----3-3-3-3-3-3-3|
G-----0---0-----0-0-0--|----2---2-----2-2-2-2-2-2-2|
D----------------------|--0---------0--------------|
A-------------3--------|----------0----------------|
E--3--------3----------|---------------------------|

   G7                    C
E--3---3---3----3--5-|-0---0---0---0----|
B----3---3---3--3----|---1---1---1------|
G----4---4---4--4----|---0---0---0------|
D--------------------|------------------|
A--------------------|------------------|
E--3-------3---------|-3--------------3-|

   C                       Dm
E--0----0---------0---1|--1---1-------1-1-1-1-1-1-3|
B-----1---1-------1----|----3---3-----3-3-3-3-3-3-3|
G-----0---0-----0-0-0--|----2---2-----2-2-2-2-2-2-2|
D----------------------|--0---------0--------------|
A-------------3--------|----------0----------------|
E--3--------3----------|---------------------------|

    G7                 C
E--3---3---3----3--5|------0-----------0----0----0|
B----3---3---3--3---|------1---------1------1----1|
G----4---4---4--4---|----0---0-----0--------0----0|
D-------------------|-----------------------------|
A-------------------|--3---------3--------3----2--|
E--3-------3--------|----------3------------------|

    Am                 Em               F
E------0-----------|-----------------|----------------|
B------1----3---1--|------0----------|----------------|
G----2----2-2---2--|------0---2---0--|-------2-------2|
D-------------2---2|----2---2-2---2--|-----3-------3--|
A--0---------------|------------2---2|---3-------3----|
E------------------|--0--------------|-1--------------|

   G          C
E--------------------0-------------|
B------------------1--------1----1-|
G-------4--------0----------0----0-|
D-----5----------------------------|
A---5---------3----------3-----2---|
E-3--------------------------------|


E------12---10----8---------7---5---3---|
B------13---12---10---------8---7---5---|
G----0----0----0----0-----0---0---0----0|
D---------------------------------------|
A--0------------------------------------|
E----------------------0----------------|



E---------5------5--------3------1|
B-------6------6--------5------3--|
G-----5------5--------4------2----|
D-------------------0-------------|
A---0-----------------------------|
E---------------------------------|



E------------------------------------------3--------3|
B-------------------------3-------3------3--------3--|
G--------4-------4------4-------4------4--------4----|
D------5-------5------5-------5------5--------5------|
A----5-------5------5-------5------------------------|
E--3-------3-----------------------------------------|

LA PARTE ARPEJIADA SE TOKA EN (G) PERO KON SEJILLA


                                       F
E------------3----|--------3------3|---------1------1|
B----------3---3--|------4------4--|-------1------1--|
G--------4-------4|----3------3----|-----2------2----|
D------5----------|--0-------------|-----------------|
A----5------------|----------------|-----------------|
E--3--------------|----------------|--1--------------|

   G7                 C
E---------3------5|--0---0-----------0----1-|
B-------3------3--|----1---1---------1------|
G-----4------4----|----0---0-------0-0-0----|
D-----------------|-------------------------|
A-----------------|-------------3-----------|
E--3--------------|--3--------3-------------|

    Dm                             G7
E--1---1--------1-1-1-1-1-1--3-|--3---3----3----3---5|
B----3---3------3-3-3-3-3-3--3-|----3---3----3--3----|
G----2---2------2-2-2-2-2-2--2-|----4---4----4--4----|
D--0----------0----------------|---------------------|
A-----------0------------------|---------------------|
E------------------------------|--3--------3---------|

    C        F                   G              C
E--0---0------------1------1-|--------3-----5|--0---0---|
B----1---1--------1------1---|------3-----3--|----1---1-|
G----0---0------2------2-----|----4-----4----|----0---0-|
D----------------------------|---------------|----------|
A----------------------------|---------------|--3-------|
E--3----------1--------------|-3-------------|----------|

    F                  G
E----------1------1|---------3------5|------------0|
B--------1------1--|-------3------3--|----------0--|
G------2------2----|-----4------4----|--------0----|
D------------------|-----------------|------2------|
A------------------|-----------------|----3--------|
E---1--------------|--3--------------|--3----------|


Espero ke les guste esta kancion no es tan dificil de tokar
adrian_groovy@hotmail.com

TANSOLO KIERO UN POKO DE PAZ Y AMOR





Esta es una transcripcion personal de un usuario de www.letrasyacordes.net - El material contenido en esta pagina es para exclusivo uso privado, quedando prohibida su reproduccion o retransmision, asi como su uso con fines comerciales.


Letras y Acordes punto net, el mejor sitio para encontrar y compartir letras de canciones, con sus correspondientes acordes para guitarra y piano. No te olvides de votar para calificar la calidad de las letras
Palabras utilizadas para encontrar esta página:
Música Clasica, BALADA PARA ADELINA, letra y acordes de BALADA PARA ADELINA de Música Clasica, canciones de Música Clasica, tocar con guitarra BALADA PARA ADELINA, tocar con piano BALADA PARA ADELINA, estudiar música
Ver más canciones de :

Música Clasica


 
{c} 2016 - letrasyacordes.net