Letras y Acordes |  Acordes |  Afinador |  IMC |  num A B C D E F G H I J K L M N O P Q R S T U V W X Y Z 
 
´╗┐
 

Elefantes || Natalia  

Links Patrocinados / Anuncios:

una_columnados_columnasaumentar_letrareducir_letravista_scrollver_impresionver_impresion_con_acordes | votar: ++++++---- | Puntaje actual: 6.00

Links Patrocinados

Links Patrocinados

calculadora de indice de masa corporal IMC

Links Patrocinados





INTRO

E|-----X--|----X--|------X---|--X--||-----X--|----X--|------X---|----X--X-|
B|-----6--|----4--|------2---|--X--||-----6--|----4--|------2---|----X--X-|
G|-----6--|----4--|------2---|--6--||-----6--|----4--|------2---|----6--6-|
D|-----6--|----4--|------2---|--5--||-----6--|----4--|------2---|----5--5-|
A|-----X--|--4----|------X---|--X--||-----X--|--4----|------X---|----X--X-|
E|--6-----|--- X--|---2------|--5--||--6-----|--- X--|---2------|--5----5-|


VERSOS 1, 2, 3
E||-----X--|----X--|------X---|----X--|-----X--|----X--|------X---|----X----|
B||-----6--|----4--|------2---|----X--|-----6--|----4--|------2---|----X----|
G||-----6--|----4--|------2---|----6--|-----6--|----4--|------2---|----6----|
D||-----6--|----4--|------2---|----5--|-----6--|----4--|------2---|----5----|
A||-----X--|--4----|------X---|----X--|-----X--|--4----|------X---|----X----|
E||--6-----|--- X--|---2------|--5----|-5-6----|--- X--|---2------|--5------|

E||-----X--|----X--|------X---|----X--|-----X--|----X--|------X---|----X----|
B||-----6--|----4--|------2---|----X--|-----6--|----4--|------2---|----X----|
G||-----6--|----4--|------2---|----6--|-----6--|----4--|------2---|----6----|
D||-----6--|----4--|------2---|----5--|-----6--|----4--|------2---|----5----|
A||-----X--|--4----|------X---|----X--|-----X--|--4----|------X---|----X----|
E||-5-6----|--- X--|---2------|--5----|-5-6----|--- X--|---2------|--5------|

E||-----X--|----X--|------X---|----X--|-----X--|----X--|------X---|----X----|
B||-----6--|----4--|------2---|----X--|-----6--|----4--|------2---|----X----|
G||-----6--|----4--|------2---|----6--|-----6--|----4--|------2---|----6----|
D||-----6--|----4--|------2---|----5--|-----6--|----4--|------2---|----5----|
A||-----X--|--4----|------X---|----X--|-----X--|--4----|------X---|----X----|
E||-5-6----|--- X--|---2------|--5----|-5-6----|--- X--|---2------|----5----|

E||-----X--|----X--|------X---|----X--|-----X--|----X--|------X---|------X---X-|--X---X-X-|
B||-----6--|----4--|------2---|----X--|-----6--|----4--|------2---|------X---X-|--6---6-5-|
G||-----6--|----4--|------2---|----6--|-----6--|----4--|------2---|------6---6-|--6---5-5-|
D||-----6--|----4--|------2---|----5--|-----6--|----4--|------2---|------5---5-|--6---6-5-|
A||-----X--|--4----|------X---|----X--|-----X--|--4----|------X---|------X---X-|--X---5-X-|
E||-5-6----|--- X--|---2------|----5--|---6----|--- X--|---2------|----5-----5-|--6---X-5-|

1
quiero buscar con el ritmo de los elefantes y rinocerontes
y saborear como un ni├▒o saborea un helado  de cajeta
quiero caminar sin zapatos y sentir las piedras
despues volar y ver si el cielo puedo yo tocar
2
quiero montar una bicicleta y llegar al mar
despues nadar y toparme una sirena sin tener que respirar
quiero caminar sin zapatos y sentir la arena
despues volar y so├▒ar que estoy despierta(o)


CORO (RASGEO)
E|--X-X--X--X-X-X-X-X--X-X--X--X-X-X-X-X^|
B|--6-6--X--6-6-6-6-5--4-4--X--4-4-4-4-4^|
G|--6-6--X--6-6-6-6-5--4-4--X--4-4-4-4-4^|
D|--6-6--X--6-6-6-6-5--4-4--X--4-4-4-4-4^|
A|--X-X--X--X-X-X-X-X--X-X--X--X-X-X-X-X^|
E|--6-6--X--6-6-6-6-5--4-4--X--4-4-4-4-4^|

    imaginar, tres elefantes en el cielo

E|--X-X--X--X-X-X-X-X--X-X--X--X-X-X-X-X^|
B|--6-6--X--6-6-6-6-5--4-4--X--4-4-4-4-4^|
G|--6-6--X--6-6-6-6-5--4-4--X--4-4-4-4-4^|
D|--6-6--X--6-6-6-6-5--4-4--X--4-4-4-4-4^|
A|--X-X--X--X-X-X-X-X--X-X--X--X-X-X-X-X^|
E|--6-6--X--6-6-6-6-5--4-4--X--4-4-4-4-4^|

    y saborear los betabeles

E|--X-X--X--X-X-X-X-X--X-X--X--X-X-X-X-X^|
B|--6-6--X--6-6-6-6-5--4-4--X--4-4-4-4-4^|
G|--6-6--X--6-6-6-6-5--4-4--X--4-4-4-4-4^|
D|--6-6--X--6-6-6-6-5--4-4--X--4-4-4-4-4^|
A|--X-X--X--X-X-X-X-X--X-X--X--X-X-X-X-X^|
E|--6-6--X--6-6-6-6-5--4-4--X--4-4-4-4-4^|

y en chayotes caminar sin espinar tus dedos

E|--X-X--X--X-X-X-X-X--X-X--X--X-X-X-X-X--X|
B|--6-6--X--6-6-6-6-5--4-4--X--4-4-4-4-4--4|
G|--6-6--X--6-6-6-6-5--4-4--X--4-4-4-4-4--4|
D|--6-6--X--6-6-6-6-5--4-4--X--4-4-4-4-4--4|
A|--X-X--X--X-X-X-X-X--X-X--X--X-X-X-X-X--4|
E|--6-6--X--6-6-6-6-5--4-4--X--4-4-4-4-4--4|

       y despues volar tocar el cielo      y

E||-----X--|----X--|------X---|----X--|-----X--|----X--|------X---|----X----|
B||-----6--|----4--|------2---|----X--|-----6--|----4--|------2---|----X----|
G||-----6--|----4--|------2---|----6--|-----6--|----4--|------2---|----6----|
D||-----6--|----4--|------2---|----5--|-----6--|----4--|------2---|----5----|
A||-----X--|--4----|------X---|----X--|-----X--|--4----|------X---|----X----|
E||---6----|--- X--|---2------|--5----|-5-6----|--- X--|---2------|--5------|

      so├▒ar  y so├▒ar

3
quiero buscar con el ritmo de los elefantes y rinocerontes
y conocer esa magia extasiada  de la que la gente habla
quiero caminar sin zapatos y sentir la mente de los hombres (mujeres)
despues volar y entonces si te amare
te amare


RASGEO
i-imaginar, tres elefantes en el cielo
y saborear los betabeles
y en chayotes caminar sin espinar mis dedos
y despues volar tocar el cielo
y so├▒ar y so├▒ar

RASGEO
imaginar, tres elefantes en el cielo
y saborear los betabeles
y en chayotes caminar sin espinar tus dedos
y despues volar tocar el cielo
y regresar

RASGEO
imaginar, tres elefantes en el cielo
y saborear los betabeles
y en chayotes caminar sin espinar mis dedos
y despues volar tocar el cielo
y regresar

RASGEO
imaginar, tres elefantes ...
 ...los betabeles
y en chayotes caminar sin espinar mis dedos...
ir al  cielo y regresar tocar las nubes
y pensar


E||-----X--|----X--|------X---|----X--|-----X--|----X--|------X---|------X---X-|--X---X-X-|
B||-----6--|----4--|------2---|----X--|-----6--|----4--|------2---|------X---X-|--6---6-5-|
G||-----6--|----4--|------2---|----6--|-----6--|----4--|------2---|------6---6-|--6---5-5-|
D||-----6--|----4--|------2---|----5--|-----6--|----4--|------2---|------5---5-|--6---6-5-|
A||-----X--|--4----|------X---|----X--|-----X--|--4----|------X---|------X---X-|--X---5-X-|
E||-5-6----|--- X--|---2------|----5--|---6----|--- X--|---2------|----5-----5-|--6---X-5-|

    si te amare regresare si te amare...





Esta es una transcripcion personal de un usuario de www.letrasyacordes.net - El material contenido en esta pagina es para exclusivo uso privado, quedando prohibida su reproduccion o retransmision, asi como su uso con fines comerciales.


Letras y Acordes punto net, el mejor sitio para encontrar y compartir letras de canciones, con sus correspondientes acordes para guitarra y piano. No te olvides de votar para calificar la calidad de las letras
Palabras utilizadas para encontrar esta página:
Natalia, Elefantes, letra y acordes de Elefantes de Natalia, canciones de Natalia, tocar con guitarra Elefantes, tocar con piano Elefantes, estudiar m├║sica
Ver más canciones de :

Natalia


 
{c} 2016 - letrasyacordes.net