Letras y Acordes |  Acordes |  Afinador |  IMC |  num A B C D E F G H I J K L M N O P Q R S T U V W X Y Z 
 

 

SER HUMANO || Natalia  

Links Patrocinados / Anuncios:

una_columnados_columnasaumentar_letrareducir_letravista_scrollver_impresionver_impresion_con_acordes | votar: ++++++---- | Puntaje actual: 6.00

Links Patrocinados

Links Patrocinados

calculadora de indice de masa corporal IMC

Links Patrocinados





Esta es una versión de ser humano,
la neta es ke yo toke kon esta version y esta muy completa,
osea si se te okurre tokarla,
te recomiendo ke uses esta tablatura

intro

esta parte va por ocho veces
G---------------------------------
D---------5---5-------------------
A----7--7---7---7--7--------5---7-
E--------------------7---7--------

luego hay un silencio
solo somos uno en algun lugar ........
verde azul cafe dolor
G-------------------------------
D-------------------------------
A-5/7---77-7-5-5-4-4------------
E-----7--------------7-7--------

el siguiente verso
voy en bicicleta venceré....
va x 4
G------------------------------
D------------------------------
A-7-7-----5--7-7---5-5---------
E-----7-7--------7-------------

Coro
X2

G------------------------------
D------------------------------
A-------------------------577--
E-33333333--55555555--0077---7-

empieza otro verso
es igual al de voy en bicicleta...
son ocho veces

el coro es de la misma forma x4

luego viene el solo de esta manera:
G------------------------------------------
D------------------------------------------
A-7-7-5-7---7-7-5-7---757---7-6--5535--5535
E------------------------------------------

asi puedes tokarla si tienes alguna duda ps kontaktame

saludos para todos
KlaW





Esta es una transcripcion personal de un usuario de www.letrasyacordes.net - El material contenido en esta pagina es para exclusivo uso privado, quedando prohibida su reproduccion o retransmision, asi como su uso con fines comerciales.


Letras y Acordes punto net, el mejor sitio para encontrar y compartir letras de canciones, con sus correspondientes acordes para guitarra y piano. No te olvides de votar para calificar la calidad de las letras
Palabras utilizadas para encontrar esta página:
Natalia, SER HUMANO, letra y acordes de SER HUMANO de Natalia, canciones de Natalia, tocar con guitarra SER HUMANO, tocar con piano SER HUMANO, estudiar música
Ver más canciones de :

Natalia


 
{c} 2016 - letrasyacordes.net