Letras y Acordes |  Acordes |  Afinador |  IMC |  num A B C D E F G H I J K L M N O P Q R S T U V W X Y Z 
 

 

Que digan lo que quieran || Natalia  

Links Patrocinados / Anuncios:

una_columnados_columnasaumentar_letrareducir_letravista_scrollver_impresionver_impresion_con_acordes | votar: ++++++---- | Puntaje actual: 6.00

Links Patrocinados

Links Patrocinados

calculadora de indice de masa corporal IMC

Links Patrocinados





"Que Digan Lo Que Quieran" - Natalia Oreiro
Tablaturas por Beli (anabella_8@hotmail.com)

  A          B    D    E
 -0-   -5-  -2-  -5-  -0-
 -2-   -5-  -4-  -7-  -0-
 -2- o -6-  -4-  -7-  -1-
 -2-   -7-  -4-  -7-  -2-
 -0-   -7-  -2-  -5-  -2-
 ---   -5-  ---  ---  -0-

INTRO
-------------------------------------------
-------------------------------------------
------2---1--------2-----1-----1-2---------
--2-2---2---2--2-2---2-2---2-2-------------
-------------------------------------------
-------------------------------------------

-------------------------------------------
-------------------------------------------
------2---1--------2-----1-----1-2---------
-------------------------------------------
--2-2---2---2--2-2---2-2---2-2-------------
-------------------------------------------

-------------------------------------------
-------------------------------------------
------2---1--------2-----1-----1-2---------
--0-0---0---0--0-0---0-0---0-0-------------
-------------------------------------------
-------------------------------------------

-------------------------------------------
-------------------------------------------
------2---1--------2-----1-----1-2---------
-------------------------------------------
--0-0---0---0--0-0---0-0---0-0-------------
-------------------------------------------


                  E
No soy mejor que vos
             B
y no seré perfecta
           D
A medio camino por andar
               A
cayendo y volviéndome a parar.
              E
Aprendo del error
                 B
y creo que el destino
                D
se escribe con gotas de sudor
                A          B
No temo a la herida ni al dolor.


                A
Y ahora sé muy bien
               B
a donde va la vida
            D
Y no hay mentira que me engañe
          A          B
Y a nada vendo la razón

                      E
Que digan lo que quieran
                   B
Que las palabras vienen y se van
               D
Y yo soy como soy en realidad
                     A
Quiero vivir a mi manera.
     B
Ohh ohh
                    E
Que digan lo que quieran
                 B
Yo tengo ya mi brújula interior

Me importa
        D
lo que dice el corazón.
                      A     B
Y sé muy bien a donde voy


ESTRIBILLO
-------------------------------------------
-------------------------------------------
------2---1--------2-----1-----1-2---------
--2-2---2---2--2-2---2-2---2-2-------------
-------------------------------------------
-------------------------------------------

-------------------------------------------
-------------------------------------------
------2---1--------2-----1-----1-2---------
-------------------------------------------
--2-2---2---2--2-2---2-2---2-2-------------
-------------------------------------------

-------------------------------------------
-------------------------------------------
------2---1--------2-----1-----1-2---------
--0-0---0---0--0-0---0-0---0-0-------------
-------------------------------------------
-------------------------------------------

-------------------------------------------
-------------------------------------------
------1---2--------------1---2-------------
-------------------------------------------
--0-0---0---0--0-0---2-2---0---2-2--2------
-------------------------------------------





Esta es una transcripcion personal de un usuario de www.letrasyacordes.net - El material contenido en esta pagina es para exclusivo uso privado, quedando prohibida su reproduccion o retransmision, asi como su uso con fines comerciales.


Letras y Acordes punto net, el mejor sitio para encontrar y compartir letras de canciones, con sus correspondientes acordes para guitarra y piano. No te olvides de votar para calificar la calidad de las letras
Palabras utilizadas para encontrar esta página:
Natalia, Que digan lo que quieran, letra y acordes de Que digan lo que quieran de Natalia, canciones de Natalia, tocar con guitarra Que digan lo que quieran, tocar con piano Que digan lo que quieran, estudiar música
Ver más canciones de :

Natalia


 
{c} 2016 - letrasyacordes.net