Letras y Acordes |  Acordes |  Afinador |  IMC |  num A B C D E F G H I J K L M N O P Q R S T U V W X Y Z 
 

 

Así son ellas - Nicho Hinojosa  

Links Patrocinados / Anuncios:

una_columnados_columnasaumentar_letrareducir_letravista_scrollver_impresionver_impresion_con_acordes | votar: ++++------ | Puntaje actual: 4.33

Links Patrocinados

Links Patrocinados

calculadora de indice de masa corporal IMC

Links Patrocinados




Diccionario de Nombres



Espero que les guste la trascripción porque es una excelente rola.
Dedicada especialmente a todas las mujeres, PORQUE SON LA MERA V........!

INTRO
E----------10p11h10--------10---10-11-13--11p13h11--10---8-7-8-10-11--10p11h10-8---------------8--8p10h8---------------------15--------------
B------------------------13--------------------------------------------------------11--10-11----------------11----------------------------8--
G-----10----------------------------------------------------------------------------------------------------------12-------------------------
D------------------------------------------------------------------------------------------------------------------------------------10------
A--------------------------------------------------------------------------------------------------------------------------------------------
E---------------------------------------------------------------------------------------------------------------------12---------------------

E---------------------------------------------------------------------6p8h6--5--5-------5p6h5-------9/10-----
B--------8p10-11-----8p10h8-----------8------------8---------------------------------8-----------7-----------
G---------------------------------7-------------7------------------------------------------------------------
D-------------------------------------------------------------------------------------------------0-0--------
A------------------------------------------------------------------------------------------------------------
E------------------------------------------------------------------------------------------------------------

VERSO1
                Gm7
No hay que comprenderlas
             Cm7
solamente amarlas
       F                          F7
las cosas más bellas de esta creación
           Bbmaj7        Gm7     D7
son las flores y ellas.


                  Gm7
No hay que comprenderlas
              Cm7
pues son un dilema
 F                          F7
de cada mirada de sus lindos ojos
 Bbmaj7                G7sus4 G7
nacen mil poemas.

CORO1
          Cm7                    F7
A veces son dulces, cariñosas y tiernas,
Bbmaj7                          Ebmaj7
a veces tan sólo palabras obscenas,
      Cm7                      D7    A7
con duros reproches, llenas de arrebatos
    Gm7                        G7
pero así son ellas;
   Cm7                       F7
mañanas azules y tardes doradas,
      Bbmaj7                       Gm7
 con sol y con lluvia, con risas y lágrimas,
       Cm7                       D7
llenas de contrastes, luceros fugaces
           Gm7
y a veces estrellas.


REQUINTO
E--------6--5--6--5p6h5-----5--6-----------3-----------------5--6--6/8---6--8--6p8h6--5-6--6/8-----11p13h11-10--8--10--------------------------------10-------15---15----
B------------------------8---------3------------3-------8--------------------------------------------------------------------------------------10-11-----11------15---15-
G--------------------------------------3-----------------------------------------------------------------------------------------------------12--------------------------
D------------------------------------------------------------------------------------------------------------------------------------------12----------------------------
A------------------------------------------------------------------------------------------------------------------------------------------------------------------------
E------------------------------------------------------------------------------------------------------------------------------------------------------------------------

VERSO2

                  Gm7
Y es que así son ellas
         Cm7
ángeles del cielo
        F                 F7
ternura y pasión, odio y amor,
       Bbmaj7    G7sus4     G7
seda y terciopelo.

CORO2
         Cm7                           F7
A veces son dulces, cariñosas y tiernas,
        Bbmaj7                     Ebmaj7
a veces tan sólo palabras obscenas,
  Cm7                            D7     A7
con duros reproches, llenas de arrebatos
       Gm7     G7
pero así son ellas;
 Cm7                      F7
mañanas azules y tardes doradas,
        Bbmaj7                      Ebmaj7
con sol y con lluvia, con risas y lágrimas,
      Cm7                           D7
llenas de contrastes, luceros fugaces
          Gm7    Cm7    D7      Gm7 (Gm7 y rasgueo hacia abajo con  Gm7)
y a veces estrellaaaaaaaaaaaaaaas,
                   * (punteo y rasgueo rápido hacia abajo con   D7 )          *(punteo)                                         (rasgueo)
 no hay que comprenderlas                                                                                                  Cm7                           D7
           Gm7   Cm7   D7   Gm7                                                                               E----------------3---------------------5|--
solamente amarlas.                                                                                            B----------2-----------2---------------7|--
                                                                                                              G--------3---3-----3-----3-------------5|--
FINAL                                                                                                         D-----5--------------------------------7|--
E-----------------------------------3--6p5---3------3--                                                       A--------------------------------------5|--
B------------------------3--4--6-----------------6-----                                                       E--------------------------------------5|--
G-----------------3--5----------------------------------                                                                                              V ( Rasgueo hacia abajo )
D------4--5--7-----------------------------------------
A-------------------------------------------------------
E--------------------------------------------------------


ACORDES:                                                               SIMBOLOGÍA:
               EADGBE                                                     p: Pull-Off
A7          5 7 5 6 5 5
Bbmaj7      1 1 3 2 3 1                                                    h: Hammer.On
Cm7         3 3 5 3 4 3
D7          5 5 7 5 7 5                                                    /: Shift Slide
F           1 3 3 2 1 1
F7          1 3 1 2 1 1                                                    | : Rasgueo hacia abajo
G7          3 5 3 4 3 3                                                   V
Gm7         3 5 3 3 3 3
G7sus4      3 5 3 5 3 3





Esta es una transcripcion personal de un usuario de www.letrasyacordes.net - El material contenido en esta pagina es para exclusivo uso privado, quedando prohibida su reproduccion o retransmision, asi como su uso con fines comerciales.


Letras y Acordes punto net, el mejor sitio para encontrar y compartir letras de canciones, con sus correspondientes acordes para guitarra y piano. No te olvides de votar para calificar la calidad de las letras
Palabras utilizadas para encontrar esta página:
Nicho Hinojosa, Así son ellas, letra y acordes de Así son ellas de Nicho Hinojosa, canciones de Nicho Hinojosa, tocar con guitarra Así son ellas, tocar con piano Así son ellas, estudiar música
Ver más canciones de :

Nicho Hinojosa


 
{c} 2016 - letrasyacordes.net