Letras y Acordes |  Acordes |  Afinador |  IMC |  num A B C D E F G H I J K L M N O P Q R S T U V W X Y Z 
 

 

EN SUSPENSO - Los Nocheros  

Links Patrocinados / Anuncios:

una_columnados_columnasaumentar_letrareducir_letravista_scrollver_impresionver_impresion_con_acordes | votar: +++++----- | Puntaje actual: 5.50

Links Patrocinados

Links Patrocinados

calculadora de indice de masa corporal IMC

Links Patrocinados




Diccionario de Nombres



e--------------------------9-7-9/11---9-7-----------------------
B--------------5-4-7-5-9-7----------------9-6/7-----------------
G------3-4-6-4--------------------------------------------------
D--4-6----------------------------------------------------------
A---------------------------------------------------------------
E---------------------------------------------------------------

(arpegios)
       B7*            Em7*             B7*
e-------2-------------2--2--0--------------2--------------------
B-----4--4---------0-0-0--0------------4---4--------------------
G----3-3--3-------0-0---0--0----------3-3--3--------------------
D---4------4-----0-------------------4-----4--------------------
A--2------------2-------------------2------2--------------------
E---------------------------------------------------------------


e---------------------------7-------7------7/9--7---------------
B------------4-5-7-8----7-8---8---8------8----------7-----------
G------3-4-6----------9---------9------9------------------------
D--4-6----------------------------------------------------------
A-------------------------------------------------6-------------
E---------------------------------------------------------------


e--7-----6---4-6-7-7-------7---6-4-------6---6------------------
B----4-----4---------5---5---5-----9---9-------9-8--------------
G------4---------------4-------------6--6--6--------------------
D--6-----6------------------------------------------------------
A------------------4---------------6-------------6--------------
E---------------------------------------------------------------

Al final comienza la canción en G#m - C#m7 - D#7





Esta es una transcripcion personal de un usuario de www.letrasyacordes.net - El material contenido en esta pagina es para exclusivo uso privado, quedando prohibida su reproduccion o retransmision, asi como su uso con fines comerciales.


Letras y Acordes punto net, el mejor sitio para encontrar y compartir letras de canciones, con sus correspondientes acordes para guitarra y piano. No te olvides de votar para calificar la calidad de las letras
Palabras utilizadas para encontrar esta página:
Los Nocheros, EN SUSPENSO, letra y acordes de EN SUSPENSO de Los Nocheros, canciones de Los Nocheros, tocar con guitarra EN SUSPENSO, tocar con piano EN SUSPENSO, estudiar música
Ver más canciones de :

Los Nocheros


 
{c} 2016 - letrasyacordes.net