Letras y Acordes |  Acordes |  Afinador |  IMC |  num A B C D E F G H I J K L M N O P Q R S T U V W X Y Z 
 

 

JUNTOS A LA PAR || Pappo  

Links Patrocinados / Anuncios:

una_columnados_columnasaumentar_letrareducir_letravista_scrollver_impresionver_impresion_con_acordes | votar: +++++++--- | Puntaje actual: 7.33

Links Patrocinados

Links Patrocinados

calculadora de indice de masa corporal IMC

Links Patrocinados





Muy buen tema del carpo de su Ăşltimo disco.Es de su bajista Yulie Ruth

“…hall…        â€¦el sol…           â€¦ciudad…       â€¦nada como ir juntos a la
G|---------------------------------------------------------
D|------------------------------5--------------------------
A|-3----------3---------------5------------------5---------
E|----------3--------3-----------------5-------------------

par…”                     â€śNada como ir juntos a la…
G|-------------------------|
D|-------------------------|
A|-------2-3--3-2----------|
E|-3---5----------5-3------|

par…                â€¦desandar…                â€¦perdi… â€¦como ir juntos a la
G|-------------------------------------------------------------------------
D|-------------------------------------5----55-----------------------------
A|-3-------------3----33---------5h7-5-----5---------------3--5----55------
E|(8)---15h17-15(8)--3------3---------------------5----5-5--------5--------

par…”
G|--------------------------|
D|--------------------------|
A|-------2-3--3-2-----------|
E|-3---5----------5-3-------|

(empieza el solo de guitarra)
G|-------------------------------------------------------------------------
D|-----5--------5h7-5--------------------------5---55----------------------
A|----5----3------------3----3-3---------5h7-5----5---------------3-5---5-5
E|----------------------------------3--------------------5----5-5----------

                              â€śSe su nombre se su…
G|----------4--5--4------------|
D|----5--7-----------7--5------|
A|-----------------------------|
E|-----------------------------|

…edad                â€¦intimidad…   â€¦se entrega…       â€¦que mas puedo…
G|--------------------------------------------------------------
D|-----------------------------------5--------------------------
A|-3--------15-17h18---------------5---------------3h7-5--------
E|(8)-----15---------------3----------------5-------------------

hacer…”                    â€śNada como ir juntos a la…
G|--------------------------|
D|--------------------------|
A|-------2-3--3-2-----------|
E|-3---5----------5-3-------|

par…                â€¦desandar…                â€¦perdi… â€¦como ir juntos a la
G|------------------------------------------------------------------------
D|-------------------------------------5----55----------------------------
A|-3-------------3----33---------5h7-5-----5--------------3-5---5-5-------
E|(8)---15h17-15(8)--3------3---------------------5---055-----------------
                                                      *
par…”                        â€śEl honor no lo…
G|----------------------------|
D|----------------------------|
A|-------2-3--3-2-------------|
E|-3---5----------5-3----3----|

perdi…           â€¦a la par”
G|-----------------------------------------------------|
D|----------------------3------------------------------|
A|---------3-5---5-5---------(0)1-3--------------------|
E|-5---055-------------(1)----5-------0-0-1-1-3--------|
       *
h: hammer on
(1) por ej: nota opcional
*, 055 por ej: es para que se sepa que es 0-5-5, pero que se tocan rapido
   *

Juntos a la par (Yulie Ruth)

Le he pedido tanto a dios
que al final oyĂł mi voz
por  la noche a más tardar
yendo juntos a la par

Cartas de amor en el hall
se secan con el sol
lejos de la gran ciudad
ella es mi felicidad
nada como ir juntos a la par

Nnada como ir juntos a la par
y caminos desandar
el honor no lo perdĂ­
es el hĂ©roe que hay en mĂ­
nada como ir juntos a la par

Se su nombre, se su edad
y sus gustos en la intimidad
cuando un corazĂłn se entrega
y el mañana nunca llega
que más puedo hacer

Nada como ir juntos a la par
y caminos desandar
el honor no lo perdĂ­
es el hĂ©roe que hay en mĂ­
nada como ir juntos a la par

Mientras su mĂşsica se siga tocando y escuchando el carpo jamás
morirá, vivirá eternamente en la memoria de todos...
e-mail: zarathustra4321@hotmail.com





Esta es una transcripcion personal de un usuario de www.letrasyacordes.net - El material contenido en esta pagina es para exclusivo uso privado, quedando prohibida su reproduccion o retransmision, asi como su uso con fines comerciales.


Letras y Acordes punto net, el mejor sitio para encontrar y compartir letras de canciones, con sus correspondientes acordes para guitarra y piano. No te olvides de votar para calificar la calidad de las letras
Palabras utilizadas para encontrar esta página:
Pappo, JUNTOS A LA PAR, letra y acordes de JUNTOS A LA PAR de Pappo, canciones de Pappo, tocar con guitarra JUNTOS A LA PAR, tocar con piano JUNTOS A LA PAR, estudiar mĂşsica
Ver más canciones de :

Pappo


 
{c} 2016 - letrasyacordes.net