Letras y Acordes |  Acordes |  Afinador |  IMC |  num A B C D E F G H I J K L M N O P Q R S T U V W X Y Z 
 

 

Ropa Sucia || Patricio Rey y sus Redonditos de Ricota  

Links Patrocinados / Anuncios:

una_columnados_columnasaumentar_letrareducir_letravista_scrollver_impresionver_impresion_con_acordes | votar: +++------- | Puntaje actual: 3.50

Links Patrocinados

Links Patrocinados

calculadora de indice de masa corporal IMC

Links Patrocinados





Intro
G|------------------|x3 |-----|-----------|
D|------------------|   |-----|-----------|
A|------------------|   |-----|-----------|
E|-5-55555-1-1111-0-|   |-(5)-|-55-555555-|

Verso
G|------------------|x8
D|------------------|
A|------------------|
E|-5-55555-1-1111-0-|

Coro
G|--------|---------------------------------|-----------------|
D|--------|---------------------------------|-----------------|
A|--------|-----0---3-0-1-3-----0---3-0-1-3-|-3(x16)-5(x16)---|
E|-3(x16)-|-111---1---------111---1---------|---------------1-|

 |-----------------------|x3 |-----|-----------|
 |-----------------------|   |-----|-----------|
 |----4---7-5-4----------|   |-----|-----------|
 |-55---5-------1-111111-|   |-(5)-|-55-555555-|

Verso
G|------------------|x4
D|------------------|
A|------------------|
E|-5-55555-1-1111-0-|

Solo de Saxo
G|--------|---------------------------------|-----------------|
D|--------|---------------------------------|-----------------|
A|--------|-----0---3-0-1-3-----0---3-0-1-3-|-3(x16)-5(x16)---|
E|-3(x16)-|-111---1---------111---1---------|---------------1-|

 |-----------------------|x3 |-----|-----------|
 |-----------------------|   |-----|-----------|
 |----4---7-5-4----------|   |-----|-----------|
 |-55---5-------1-111111-|   |-(5)-|-55-555555-|

Verso
G|------------------|x8
D|------------------|
A|------------------|
E|-5-55555-1-1111-0-|

Coro
G|--------|---------------------------------|-----------------|
D|--------|---------------------------------|-----------------|
A|--------|-----0---3-0-1-3-----0---3-0-1-3-|-3(x16)-5(x16)---|
E|-3(x16)-|-111---1---------111---1---------|---------------1-|

 |-----------------------|x3 |-----|-----------|
 |-----------------------|   |-----|-----------|
 |----4---7-5-4----------|   |-----|-----------|
 |-55---5-------1-111111-|   |-(5)-|-55-555555-|

Puente
G|------------------|x4
D|------------------|
A|------------------|
E|-555-555--111-111-|

Final (Solo de Saxo)
G|----------------------|x3
D|----------------------|
A|---4--7-5-4-----------|
E|-55--5-------1-111111-|

 |-------------------------|
 |-------------------------|
 |-------------------------|
 |-(5)--(1)--(0)--(1)--(5)-|

Escuchá la canción para saber el ritmo





Esta es una transcripcion personal de un usuario de www.letrasyacordes.net - El material contenido en esta pagina es para exclusivo uso privado, quedando prohibida su reproduccion o retransmision, asi como su uso con fines comerciales.


Letras y Acordes punto net, el mejor sitio para encontrar y compartir letras de canciones, con sus correspondientes acordes para guitarra y piano. No te olvides de votar para calificar la calidad de las letras
Palabras utilizadas para encontrar esta página:
Patricio Rey y sus Redonditos de Ricota, Ropa Sucia, letra y acordes de Ropa Sucia de Patricio Rey y sus Redonditos de Ricota, canciones de Patricio Rey y sus Redonditos de Ricota, tocar con guitarra Ropa Sucia, tocar con piano Ropa Sucia, estudiar música
Ver más canciones de :

Patricio Rey y sus Redonditos de Ricota


 
{c} 2016 - letrasyacordes.net