Letras y Acordes |  Acordes |  Afinador |  IMC |  num A B C D E F G H I J K L M N O P Q R S T U V W X Y Z 
 

 

El Andariego - Pepe Jara  

Links Patrocinados / Anuncios:

una_columnados_columnasaumentar_letrareducir_letravista_scrollver_impresionver_impresion_con_acordes | votar: ++++++++-- | Puntaje actual: 8.33

Links Patrocinados

Links Patrocinados

calculadora de indice de masa corporal IMC

Links Patrocinados




Diccionario de Nombres



IntroducciĂłn se hace en requinto con capo en segundo traste o en guitarra con capo en el sĂ©ptimo traste.

1 ------------------------------0--0---------||
2 ----------0---3-3-2-3-2-3-2-3-1--1--3--1--.||
3 -------1------4-4-3-4-3-4-3-4-------4--2--.||
4 -2-1-2-------------------------------------||

1 ------------------------------0--0---------||
2 ----------0---3-3-2-3-2-3-2-3-1--1--3--1--.||
3 -------1------4-4-3-4-3-4-3-4-------4--2--.||
4 -2-1-2-------------------------------------||

1 ----------0---3-2-3-2-3-2----5-5-5-5-3-1---||
2 --------2-----5-4-5-4-5-4----5-5-5-5-5-3---||
3 --2-1-2------------------------------------||
4 -------------------------------------------||

1--0-1--0-------0-----------------------0-5--||
2-3----3----1-3--1-3-------0----------1---5--||
3----------------------1-2---1-2--1-2--------||
4--------------------------------------------||

Am              A7          Dm
 Yo que fui del amor ave de paso
G7                              C   C7
yo que fui mariposas de mil flores
F                               E7
hoy siento la nostalgia de tus brazos
                  F  B7                  E7
de aquellos tus ojazos de aquellos tus amores
Am           A7           Dm    G7
ni cadena ni lagrimas me ataron mas hoy siento
                 C   C7 F
la calma y el sosiego  perdona mi tardanza
       E7                   F
te lo ruego perdona al andariego que hoy
     E7           Am
te ofrece el corazĂłn.

Dm                  G7           C
Hay ausencias que triunfan y la nuestra triunfo
          E7
amĂ©monos ahora con la paz que en otros
Am                               Dm
tiempos nos falto y cuando yo me muera ni luz
   G7         C           A7
ni llanto ni luto ni nada mas,
                Dm G7                 C
ahĂ­ junto a mi cruz  tan solo quiero paz

     E7               Am
Solo tu corazĂłn si recuerdas mi amor
Dm          G7           C      A7
una lágrima llĂ©vame por Ăşltima vez
        Dm        G7         C
y en silencio dirás una plegaria
      E7                Am
y por Dios olvĂ­dame despuĂ©s.


1 ------------------------------0--0---------||
2 ----------0---3-3-2-3-2-3-2-3-1--1--3--1--.||
3 -------1------4-4-3-4-3-4-3-4-------4--2--.||
4 -2-1-2-------------------------------------||

1 ------------------------------0--0---------||
2 ----------0---3-3-2-3-2-3-2-3-1--1--3--1--.||
3 -------1------4-4-3-4-3-4-3-4-------4--2--.||
4 -2-1-2-------------------------------------||

1 ----------0---3-2-3-2-3-2----5-5-5-5-3-1---||
2 --------2-----5-4-5-4-5-4----5-5-5-5-5-3---||
3 --2-1-2------------------------------------||
4 -------------------------------------------||

1----0-1-0-----------------------------------||
2--2-------3-1-0-----------------------------||
3----------------2-1-----------------2-------||
4--------------------3-2-0---------2---------||
5--------------------------3-2-0-3-----------||

1--0-0-4-0-0-7-0-0-4-0-0-7-0-0-5-0-0-8-0-0---||
2--5-5-5-5-5-5-5-5-5-5-5-5-5-5-5-5-5-5-5-5---||
3--------------------------------------------||
4--------------------------------------------||

1--5-0-0-8-0-0-4-0-0-7-0-0-4-0-0-7-0-0-5-----||
2--5-5-5-5-5-5-5-5-5-5-5-5-5-5-5-5-5-5-5-----||
3--------------------------------------------||
4--------------------------------------------||

1--0-1-2-3-2-3-2-3-2-5-5-5-5-3-1-------------||
2--2-3-4-5-4-5-4-5-4-5-5-5-5-5-3-------------||
3--------------------------------------------||
4--------------------------------------------||

1--0-1--0-------0-----------------------0-5--||
2-3----3----1-3--1-3-------0----------1---5--||
3----------------------1-2---1-2--1-2--------||
4--------------------------------------------||

Dm                  G7           C
Hay ausencias que triunfan y la nuestra triunfo
          E7
amĂ©monos ahora con la paz que en otros
Am                               Dm
tiempos nos falto y cuando yo me muera ni luz
   G7         C           A7
ni llanto ni luto ni nada mas,
                Dm G7                 C
ahĂ­ junto a mi cruz  tan solo quiero paz

     E7               Am
Solo tu corazĂłn si recuerdas mi amor
Dm          G7           C      A7
una lágrima llĂ©vame por Ăşltima vez
        Dm        G7         C
y en silencio dirás una plegaria
      E7                Am
y por Dios olvĂ­dame despuĂ©s.





Esta es una transcripcion personal de un usuario de www.letrasyacordes.net - El material contenido en esta pagina es para exclusivo uso privado, quedando prohibida su reproduccion o retransmision, asi como su uso con fines comerciales.


Letras y Acordes punto net, el mejor sitio para encontrar y compartir letras de canciones, con sus correspondientes acordes para guitarra y piano. No te olvides de votar para calificar la calidad de las letras
Palabras utilizadas para encontrar esta página:
Pepe Jara, El Andariego, letra y acordes de El Andariego de Pepe Jara, canciones de Pepe Jara, tocar con guitarra El Andariego, tocar con piano El Andariego, estudiar mĂşsica
Ver más canciones de :

Pepe Jara


 
{c} 2016 - letrasyacordes.net