Letras y Acordes |  Acordes |  Afinador |  IMC |  num A B C D E F G H I J K L M N O P Q R S T U V W X Y Z 
 

 

Loco - Pesado  

Links Patrocinados / Anuncios:

una_columnados_columnasaumentar_letrareducir_letravista_scrollver_impresionver_impresion_con_acordes | votar: ++++++---- | Puntaje actual: 6.00

Links Patrocinados

Links Patrocinados

calculadora de indice de masa corporal IMC

Links Patrocinados




Diccionario de Nombres



    INTRO:
C---------------------------
D---------------------------
A--7----5----3----4---------
E---------------------------

AQUI EMPIEZA EL ACORDEON:
C-------------------------------------------------------------
D------9-9-----------9-9-------------7-7---------7-7----------
A---7-----------7---------------5-------------5---------------
E----------7-7-----------7-7-------------5-5----------5-5-----

C---------------------------
D------5-5---------5-5------
A---3-----------3----------5
E----------3-3---------3-3--

SI SE FIJAN BIEN SON LAS NOTAS DE MI-, RE, DO, SOL.
EN TODA LA CANCIÓN LLEVA LA MAYORIA DE ESTAS NOTAS Y SE REPITEN ASI QUE
ASI QUE SOLO DEBEN SEGUIR LA NOTAS Y SE HACE DE UNA MISMA FORMA TODO,
PERO HAY UNA PARTE DONDE ARRASTRA LA CUERDA DE TRASTE A TRASTE Y VA ASI:

C-----------------------------------------------------
D--------------------------------------
A-Bb*-D--------------------------------
E-F*--A--------------------------------

TAL PARECE QUE ASI VA TODO Y COMO DIJE ANTES TODO SE VA REPITIENDO,
SOLAMENTE HAY QUE PONER ATENCIÓN EN LAS NOTAS Y YA. ALGUNA DUDA COMENTARIO, AMENAZA ESCRIBIR A MI CORREO.





Esta es una transcripcion personal de un usuario de www.letrasyacordes.net - El material contenido en esta pagina es para exclusivo uso privado, quedando prohibida su reproduccion o retransmision, asi como su uso con fines comerciales.


Letras y Acordes punto net, el mejor sitio para encontrar y compartir letras de canciones, con sus correspondientes acordes para guitarra y piano. No te olvides de votar para calificar la calidad de las letras
Palabras utilizadas para encontrar esta página:
Pesado, Loco, letra y acordes de Loco de Pesado, canciones de Pesado, tocar con guitarra Loco, tocar con piano Loco, estudiar música
Ver más canciones de :

Pesado


 
{c} 2016 - letrasyacordes.net