Letras y Acordes |  Acordes |  Afinador |  IMC |  num A B C D E F G H I J K L M N O P Q R S T U V W X Y Z 
 
´╗┐
 

El Pa├şs del sagrado coraz├│n || La Pestilencia  

Links Patrocinados / Anuncios:

una_columnados_columnasaumentar_letrareducir_letravista_scrollver_impresionver_impresion_con_acordes | votar: ++++++---- | Puntaje actual: 6.00

Links Patrocinados

Links Patrocinados

calculadora de indice de masa corporal IMC

Links Patrocinados





LA PESTILENCIA: EL PAIS DEL SAGRADO CORAZ├ôN
POR: JULI├üN G├üMEZ MAR├ŹN

INTRO:

|----3-2-|
|--------|
|--------|X 4
|--------|
|--------|
|-3-3----|

|-------|  |---|  |---|
|-------|  |---|  |---|
|-------|x8|-4-|x8|-5-|x8
|-5-5h6-|  |-4-|  |-5-|
|-5-5h6-|  |-2-|  |-3-|
|-3-3h4-|  |---|  |---|

|-------|  |---|  |---|
|-------|  |---|  |---|
|-------|x8|-4-|x8|-5-|x8
|-5-5h6-|  |-4-|  |-5-|
|-5-5h6-|  |-2-|  |-3-|
|-3-3h4-|  |---|  |---|

|----3-2-----3-2-1h2p1h2-|
|------------------------|
|------------------------|X 8
|------------------------|
|------------------------|
|-3-3----3-3-------------|

|-------|
|-------|
|-------|x8
|-5-5h6-|
|-5-5h6-|
|-3-3h4-|

|----3-2-----3-2-1h2p1h2-|
|------------------------|
|------------------------|X 8
|------------------------|
|------------------------|
|-3-3----3-3-------------|

|-------|  |---|  |---|
|-------|  |---|  |---|
|-------|x8|-4-|x8|-5-|x8
|-5-5h6-|  |-4-|  |-5-|
|-5-5h6-|  |-2-|  |-3-|
|-3-3h4-|  |---|  |---|

|-------|  |---|  |---|
|-------|  |---|  |---|
|-------|x8|-4-|x8|-5-|x8
|-5-5h6-|  |-4-|  |-5-|
|-5-5h6-|  |-2-|  |-3-|
|-3-3h4-|  |---|  |---|

|----3-2-----3-2-1h2p1h2-|
|------------------------|
|------------------------|X 8
|------------------------|
|------------------------|
|-3-3----3-3-------------|

|-------|
|-------|
|-------|x8
|-5-5h6-|
|-5-5h6-|
|-3-3h4-|





Esta es una transcripcion personal de un usuario de www.letrasyacordes.net - El material contenido en esta pagina es para exclusivo uso privado, quedando prohibida su reproduccion o retransmision, asi como su uso con fines comerciales.


Letras y Acordes punto net, el mejor sitio para encontrar y compartir letras de canciones, con sus correspondientes acordes para guitarra y piano. No te olvides de votar para calificar la calidad de las letras
Palabras utilizadas para encontrar esta página:
La Pestilencia, El Pa├şs del sagrado coraz├│n, letra y acordes de El Pa├şs del sagrado coraz├│n de La Pestilencia, canciones de La Pestilencia, tocar con guitarra El Pa├şs del sagrado coraz├│n, tocar con piano El Pa├şs del sagrado coraz├│n, estudiar m├║sica
Ver más canciones de :

La Pestilencia


 
{c} 2016 - letrasyacordes.net