Letras y Acordes |  Acordes |  Afinador |  IMC |  num A B C D E F G H I J K L M N O P Q R S T U V W X Y Z 
 

 

Barrilito de Cerveza - los Prisioneros  

Links Patrocinados / Anuncios:

una_columnados_columnasaumentar_letrareducir_letravista_scrollver_impresionver_impresion_con_acordes | votar: ++++++++-- | Puntaje actual: 8.25

Links Patrocinados

Links Patrocinados

calculadora de indice de masa corporal IMC

Links Patrocinados




Diccionario de Nombres



 Esta cancion no es de los Prisioneros, es un 'cover' o
algo así, pero como ellos tocan la canción en el album
y yo la saque de su versión, la puse aquí. Que la
disfruten!!

------------------------------8-10--8-8-7---7/8-10--10--10---7-7-8
-8-8-8------8-8-8------8-8-8--------------------------------------
--------9----------9----------------------------------------------
------------------------------------------------------------------
------------------------------------------------------------------
------------------------------------------------------------------

-7-7-8-8--7--5-5---
-----------------8-
-------------------
-------------------
-------------------
-------------------

------------------------------8-10--8-8-7---7/8-10--10--10---7-7-8
-8-8-8------8-8-8------8-8-8--------------------------------------
--------9----------9----------------------------------------------
------------------------------------------------------------------
------------------------------------------------------------------
------------------------------------------------------------------

-5--3--3--5--7--8--
-------------------
-------------------
-------------------
-------------------
-------------------

---------------------------------------------------------------
-8-9-10--9-10---6-5---10--10--10-5-6-7-8--7-8--5------8---8---8
--------------------7----------------------------7-5-----------
---------------------------------------------------------------
---------------------------------------------------------------
---------------------------------------------------------------

-8-10-8-7---10-5---3-7-------8-10-8-7---10-5---3-8--8-8-8
---------------------------------------------------------
---------------------------------------------------------
---------------------------------------------------------
---------------------------------------------------------
---------------------------------------------------------





Esta es una transcripcion personal de un usuario de www.letrasyacordes.net - El material contenido en esta pagina es para exclusivo uso privado, quedando prohibida su reproduccion o retransmision, asi como su uso con fines comerciales.


Letras y Acordes punto net, el mejor sitio para encontrar y compartir letras de canciones, con sus correspondientes acordes para guitarra y piano. No te olvides de votar para calificar la calidad de las letras
Palabras utilizadas para encontrar esta página:
los Prisioneros, Barrilito de Cerveza, letra y acordes de Barrilito de Cerveza de los Prisioneros, canciones de los Prisioneros, tocar con guitarra Barrilito de Cerveza, tocar con piano Barrilito de Cerveza, estudiar música
Ver más canciones de :

los Prisioneros


 
{c} 2016 - letrasyacordes.net