Letras y Acordes |  Acordes |  Afinador |  IMC |  num A B C D E F G H I J K L M N O P Q R S T U V W X Y Z 
 

 

El loco || los Babasónicos  

Links Patrocinados / Anuncios:

una_columnados_columnasaumentar_letrareducir_letravista_scrollver_impresionver_impresion_con_acordes | votar: +++++----- | Puntaje actual: 5.50

Links Patrocinados

Links Patrocinados

calculadora de indice de masa corporal IMC

Links Patrocinados





ESTE ES EL INTRO DE LA CANCION LOCO DE LOS BABASONICOS,
DEBE TOCARSE SIN DISTORCION Y LOS VIBRATOS DEBEN HACERSE
FULL, PARA DARLE EL SONIDO PARTICULAR AL SAMPLE QUE ELLOS
USAN.

CUALQUIER DUDA QUE TENGAN O SI QUIEREN PEDIRME ALGUNA
TABLATURA PUEDEN HACERLO A JMTUCU@YAHOO.COM.AR
SALUDOS A TODOS, AGUANTE SOMISA Y KAPANGA !!!
JUAN MANUEL, SAN NICOLAS (BS AS, ARGENTINA)
ICQ: 72672910 (TUCU)

  A  A B A B C# C#E C#E F#G# F# F#
  ~          ~               ~
|----------------------------------|
|----------------------------------|
|----------------------------------|
|----------------------------------|
|-----------------7---7-9-11-9--9--|
|-5--5-7-5-7-9--9---9--------------|


  E F#A F#E  E F#F#E D E D
          ~
|---------------------------|
|---------------------------|
|------------9--------------|
|-----7---------------------|
|-7-9---9-7----9-9-7-5-7-5--|
|---------------------------|


  E D C#B A B A
|----------------|
|----------------|
|----------------|
|----------------|
|-7-5------------|
|-----9-7-5-7-5--|


-------
Leyenda
-------

~  = vibrato sobre esa nota





Esta es una transcripcion personal de un usuario de www.letrasyacordes.net - El material contenido en esta pagina es para exclusivo uso privado, quedando prohibida su reproduccion o retransmision, asi como su uso con fines comerciales.


Letras y Acordes punto net, el mejor sitio para encontrar y compartir letras de canciones, con sus correspondientes acordes para guitarra y piano. No te olvides de votar para calificar la calidad de las letras
Palabras utilizadas para encontrar esta página:
los Babasónicos, El loco, letra y acordes de El loco de los Babasónicos, canciones de los Babasónicos, tocar con guitarra El loco, tocar con piano El loco, estudiar música
Ver más canciones de :

los Babasónicos


 
{c} 2016 - letrasyacordes.net