Letras y Acordes |  Acordes |  Afinador |  IMC |  num A B C D E F G H I J K L M N O P Q R S T U V W X Y Z 
 
´╗┐
 

Volver a respirar - Qbo  

Links Patrocinados / Anuncios:

una_columnados_columnasaumentar_letrareducir_letravista_scrollver_impresionver_impresion_con_acordes | votar: +++++++--- | Puntaje actual: 7.50

Links Patrocinados

Links Patrocinados

calculadora de indice de masa corporal IMC

Links Patrocinados




Diccionario de Nombres



Aqu├ş les pongo mi versi├│n de esta rola, espero
que le entiendan.
Esta muy f├ícil, solo tienen que tocarla con el
ritmo de la canci├│n y afinar su guitarra en:

 1)C#
 2)G#
 3)E
 4)B
 5)F#
 6)B

Clave:
h: hammer on
*: palm mute
p: pull off

   [con un auto-wah]
C#|----------------------------------------|
G#|----------------------------------------|
E |-----------------------------0-0--------|
B |-2h3p2-2---2h3p2-2---2h3p2-2-----0------| x2
F#|----------------------------------------|
B |----------------------------------------|

C#|----------------------------------------|
G#|----------------------------------------|
E |----------------------------------------|
B |-2h3p2-2---2h3p2-2---2h3p2-2--5-5-0-----| x2
F#|-2h3p2-2---2h3p2-2---2h3p2-2--5-5-0-----|
B |-2h3p2-2---2h3p2-2---2h3p2-2--5-5-0-----|

C#|-------------------------------------|
G#|-------0--------0--------0-----------|
E |-------0--------0--------0-----------|
B |-2h3p2----2h3p2----2h3p2---5-5-0-----| x2
F#|-2h3p2----2h3p2----2h3p2---5-5-0-----|
B |-2h3p2----2h3p2----2h3p2---5-5-0-----|

C#|---------------|
G#|---------------|
E |-----*-*-*-*---|
B |-0h2-2-0-2-0-2-| x4
F#|-0h2-2-0-2-0-2-|
B |-0h2-2-0-2-0-2-|
    "Escucho”...

   [coro]                            |________x2_________|
C#|---------------------------|---------------------------|
G#|----------------------(x3)-|---------------------------|
E |-9-------------------------|-9-------------------------|
B |-9--0--2-2-0-2-0-2-2-0-2-0-|-9--0--2-0-2-0-2-0-2-0-2-0-|
F#|-7--0--2-2-0-2-0-2-2-0-2-0-|-7--0--2-0-2-0-2-0-2-0-2-0-|
B |----0--2-2-0-2-0-2-2-0-2-0-|----0--2-0-2-0-2-0-2-0-2-0-|
   “So├▒ar, despierto”...

C#|-----------------------------------|
G#|-----------------------------------|
E |-----------------------------------|
B |-2h3p2-2---2h3p2-2---2h3p2-2-5-5-0-| x1
F#|-----------------------------5-5-0-|
B |-----------------------------5-5-0-|

C#|----------------------------------------|
G#|----------------------------------------|
E |----------------------------------------|
B |-2h3p2-2---2h3p2-2---2h3p2-2--5-5-0-----| x1
F#|-2h3p2-2---2h3p2-2---2h3p2-2--5-5-0-----|
B |-2h3p2-2---2h3p2-2---2h3p2-2--5-5-0-----|

C#|-------------------------------------|
G#|-------0--------0--------0-----------|
E |-------0--------0--------0-----------|
B |-2h3p2----2h3p2----2h3p2---5-5-0-----| x1
F#|-2h3p2----2h3p2----2h3p2---5-5-0-----|
B |-2h3p2----2h3p2----2h3p2---5-5-0-----|

C#|---------------|
G#|---------------|
E |-----*-*-*-*---|
B |-0h2-2-0-2-0-2-| x4
F#|-0h2-2-0-2-0-2-|
B |-0h2-2-0-2-0-2-|
   “Parece irreal”...

   [coro]                            |________x2_________|
C#|---------------------------|---------------------------|
G#|----------------------(x3)-|---------------------------|
E |-9-------------------------|-9-------------------------|
B |-9--0--2-2-0-2-0-2-2-0-2-0-|-9--0--2-0-2-0-2-0-2-0-2-0-|
F#|-7--0--2-2-0-2-0-2-2-0-2-0-|-7--0--2-0-2-0-2-0-2-0-2-0-|
B |----0--2-2-0-2-0-2-2-0-2-0-|----0--2-0-2-0-2-0-2-0-2-0-|
    “So├▒ar, despierto”...

C#|----------------------------------------|
G#|----------------------------------------|
E |----------------------------------------|
B |-2h3p2-2---2h3p2-2---2h3p2-2--5-5-0-----| x4
F#|-2h3p2-2---2h3p2-2---2h3p2-2--5-5-0-----|
B |-2h3p2-2---2h3p2-2---2h3p2-2--5-5-0-----|

C#|---------------|
G#|---------------|
E |-----*-*-*-*---|
B |-0h2-2-0-2-0-2-| x1
F#|-0h2-2-0-2-0-2-|
B |-0h2-2-0-2-0-2-|

   [coro]                            |________x2_________|
C#|---------------------------|---------------------------|
G#|----------------------(x3)-|---------------------------|
E |-9-------------------------|-9-------------------------|
B |-9--0--2-2-0-2-0-2-2-0-2-0-|-9--0--2-0-2-0-2-0-2-0-2-0-|
F#|-7--0--2-2-0-2-0-2-2-0-2-0-|-7--0--2-0-2-0-2-0-2-0-2-0-|
B |----0--2-2-0-2-0-2-2-0-2-0-|----0--2-0-2-0-2-0-2-0-2-0-|
   “So├▒ar, despierto”...

C#|----------------------------------------|
G#|----------------------------------------|
E |----------------------------------------|
B |-2h3p2-2---2h3p2-2---2h3p2-2--5-5-0-----| x2
F#|-2h3p2-2---2h3p2-2---2h3p2-2--5-5-0-----|
B |-2h3p2-2---2h3p2-2---2h3p2-2--5-5-0-----|
   “Volver a respirar”

C#|-------------------------------------|
G#|-------0--------0--------0-----------|
E |-------0--------0--------0-----------|
B |-2h3p2----2h3p2----2h3p2---5-5-0-----| x2
F#|-2h3p2----2h3p2----2h3p2---5-5-0-----|
B |-2h3p2----2h3p2----2h3p2---5-5-0-----|
   “Volver a respirar”

===> dudas o comentarios, no duden en escribirme <===





Esta es una transcripcion personal de un usuario de www.letrasyacordes.net - El material contenido en esta pagina es para exclusivo uso privado, quedando prohibida su reproduccion o retransmision, asi como su uso con fines comerciales.


Letras y Acordes punto net, el mejor sitio para encontrar y compartir letras de canciones, con sus correspondientes acordes para guitarra y piano. No te olvides de votar para calificar la calidad de las letras
Palabras utilizadas para encontrar esta página:
Qbo, Volver a respirar, letra y acordes de Volver a respirar de Qbo, canciones de Qbo, tocar con guitarra Volver a respirar, tocar con piano Volver a respirar, estudiar m├║sica
Ver más canciones de :

Qbo


 
{c} 2016 - letrasyacordes.net