Letras y Acordes |  Acordes |  Afinador |  IMC |  num A B C D E F G H I J K L M N O P Q R S T U V W X Y Z 
 
´╗┐
 

Oto├▒o medieval - Rata Blanca  

Links Patrocinados / Anuncios:

una_columnados_columnasaumentar_letrareducir_letravista_scrollver_impresionver_impresion_con_acordes | votar: ++++++---- | Puntaje actual: 6.57

Links Patrocinados

Links Patrocinados

calculadora de indice de masa corporal IMC

Links Patrocinados




Diccionario de Nombres



          *1 Am           Dm                  Am
eb|-5--7-|-8--------7--5-|-1-----------0-----|-0-----------------|
Bb|------|-----5---------|-------3--------3--|-------------3--1--|
Gb|------|---5---5-------|----2-----2--------|-------2-----------|
Db|------|---------------|-0-----------------|----2-----2--------|
Ab|------|-0-------------|-------------------|-0-----------------|
Eb|------|---------------|-------------------|-------------------|


  Dm                  F                   E                   Am
1|-------1-----------|-------------------|-------------------|-------------------|
 |-3-----------1--0--|-1-----------0-----|----------------0--|-1-----------------|
 |----2-----2--------|----------------2--|-1-----------2-----|-------2-----2-----|
 |-0-----------------|-------3-----------|-------2-----------|----2-----2-----2--|
 |-------------------|----3-----3--------|----2-----2--------|-0-----------------|
6|-------------------|-1-----------------|-0-----------------|-------------------|


  Am                     Am              Dm                 Am
1|--------------||-5--7-|-8--------7--5-|-1----------0-----|--0------------------|
 |--------------||------|-5----5--------|-------3-------3--|--------------3--1---|
 |--------2-----||------|-5--5---5------|----2-----2-------|--------2------------|
 |-----2-----2--||------|---------------|-0----------------|-----2-----2---------|
 |--0-----------||------|-0-------------|------------------|--0------------------|
6|--------------||------|---------------|------------------|---------------------|


  Dm                   CI F                E                   Am
1|--------1-----------|-------------------|-------------------|-------------------|
 |--3-----------1--0--|-1-----------0-----|-------------1--0--|-------------------|
 |-----2-----2--------|----------------2--|-1-----------------|-2-----2-----2-----|
 |--0-----------------|-------3-----------|-------2-----------|----2-----2-----2--|
 |--------------------|----3-----3--------|----2-----2--------|-0-----------------|
6|--------------------|-1-----------------|-0-----------------|-------------------|


          Dm                   Am                   Dm                   Am
1|-------|--------0-----1-----|--0-----------------|--------1-----------|-------0------------|
 |-0--1--|--3-----------------|--1-----------3--1--|--3-----------1--0--|-1-----------0--1---|
 |-------|-----2-----2-----2--|--2-----2-----------|-----2-----2--------|--------------------|
 |-------|--0-----------------|-----2-----2--------|--0-----------------|----2-----2---------|
 |-------|--------------------|--0-----------------|--------------------|-0------------------|
6|-------|--------------------|--------------------|--------------------|--------------------|


  Dm                               E *2            E/G#                   Am
1|-------0-----1-----|-1--3--3/5--|-4----------5--|--0-----------||-5--7-|-8-----------7--5--|
 |-3--------3-----3--|-3--5--5/6--|------5--------|--------0-----||------|-------5-----------|
 |----2--------------|------------|---4-----4-----|--------------||------|----5-----5--------|
 |-0-----------------|------------|---------------|-----2-----2--||------|-------------------|
 |-------------------|------------|---------------|--------------||------|-0-----------------|
6|-------------------|-1----------|-0-------------|--4-----------||------|-------------------|


  Dm                  Am                   Dm                   F
1|-1-----------0-----|--0-----------------|--------1-----------|--------------------|
 |-------3--------3--|--------------3--1--|--3-----------1--0--|--1-----------0-----|
 |----2-----2--------|--------2-----------|-----2-----2--------|-----------------2--|
 |-0-----------------|-----2-----2--------|--0-----------------|--------3-----------|
 |-------------------|--0-----------------|--------------------|-----3-----3--------|
6|-------------------|--------------------|--------------------|--1-----------------|


  E                     Am                  Am
1|---------------------|-------------------|-------------||
 |------------------0--|-1-----------------|-------------||
 |--1------------2-----|-------2-----2-----|-------2-----||
 |--------2------------|----2-----2-----2--|----2-----2--||
 |-----2-----2---------|-0-----------------|-0-----------||
6|--0------------------|-------------------|-------------||


El resto del tema lleva varias guitarras.

*1 Con media cejilla

*2 : E 1|--4----
        |--5----
        |--4----
        |-------
        |-------
       6|-------


alguna sugerencia envienmela a mi correo faryths@hotmail.com





Esta es una transcripcion personal de un usuario de www.letrasyacordes.net - El material contenido en esta pagina es para exclusivo uso privado, quedando prohibida su reproduccion o retransmision, asi como su uso con fines comerciales.


Letras y Acordes punto net, el mejor sitio para encontrar y compartir letras de canciones, con sus correspondientes acordes para guitarra y piano. No te olvides de votar para calificar la calidad de las letras
Palabras utilizadas para encontrar esta página:
Rata Blanca, Oto├▒o medieval, letra y acordes de Oto├▒o medieval de Rata Blanca, canciones de Rata Blanca, tocar con guitarra Oto├▒o medieval, tocar con piano Oto├▒o medieval, estudiar m├║sica
Ver más canciones de :

Rata Blanca


 
{c} 2016 - letrasyacordes.net