Letras y Acordes |  Acordes |  Afinador |  IMC |  num A B C D E F G H I J K L M N O P Q R S T U V W X Y Z 
 
´╗┐
 

Europa || Santana  

Links Patrocinados / Anuncios:

una_columnados_columnasaumentar_letrareducir_letravista_scrollver_impresionver_impresion_con_acordes | votar: ++-------- | Puntaje actual: 2.67

Links Patrocinados

Links Patrocinados

calculadora de indice de masa corporal IMC

Links Patrocinados





Esta es una magnifica rola y un buen acompa├▒amiento de
bajo solo, agarra bien los tiempos....

  Bb7sus4      Bb7          Ebmaj7       Abmaj7
G|------------|------------|------------|------------|
D|------------|------------|------------|------------|
A|------------|------------|6----6--6---|------------|
E|6----6--6---|6----6--6---|------------|4----4--4---|

  G7sus4       G7           Cm           Bbsus4
G|------------|------------|------------|------------|
D|------------|------------|------------|------------|
A|------------|------------|3----3--3--3|------------|
E|3----3--3---|3----3--3---|------------|6----6--6---|

  Bb7          Ebmaj7       Abmaj7       G7sus4
G|------------|------------|------------|------------|
D|------------|------------|------------|------------|
A|------------|6----6--6---|------------|------------|
E|6----6--6---|------------|4----4--4---|3----3--3---|

  G7           Cm                        Fm7
G|------------|------------|------------|----10-8----|
D|------------|------------|------------|--------10--|
A|------------|3--3-3--3-3-|--10-----10-|8---------10|
E|3----3--3---|------------|------8-----|------------|

  Bb7          Ebmaj7       Abmaj7       G7sus4
G|------------|-----8-7-5--|------------|------------|
D|8-----------|-----------7|6-----------|---5789--9--|
A|--8---8-----|6-----------|--6---6-----|-------10-10|
E|----6-------|------------|----4-------|3-3---------|

  Cm           Bbsus4       Ebmaj7       Abmaj7
G|------------|------------|------------|------------|
D|10----------|------8-----|------------|------------|
A|--------15s3|----8-------|6-----------|------------|
E|---8-8------|666-----6668|--------6---|4----4--4---|

  G7sus4       G7           Cm           Bb7sus4
G|------------|------------|------------|------------|
D|------------|--5---------|------------|------------|
A|------------|5-----------|3--3-3--3-3-|------------|
E|3----3--3---|------3--3--|------------|6----6--6---|

  Bb7          Ebmaj7       Abmaj7       G7sus4
G|------------|------------|------------|------------|
D|------------|------------|------------|------------|
A|------------|6----6--6---|------------|------------|
E|6-6--6-6---6|-----------6|4----4--4---|3----3--3--3|

  G7           Cmaj7                     Fm7
G|------------|------------|------------|---10-------|
D|------------|------------|------------|-----10-----|
A|------------|3---3-3--3-3|-10-----10--|8------8--8-|
E|3----3--3---|------------|-----8------|--*-----*--8|
                                           * casi*
                                          inaudible

  Bb7          Ebmaj7       Abmaj7       G7sus4
G|------------|------7875--|------------|------------|
D|------------|-----------7|6-----------|---5789--9--|
A|---8-----8--|6-----------|--6---6-----|-------10-10|
E|6-----6-----|------------|----4-------|3-3---------|

 ( cambio de ritmo )
  Cm7            Fm7                      Fm7
G|--------------|---------10|10----------|-----------|
D|-----1010-----|---10-10---|---10-10----|3----------|
A|-1010----1010s|8-8--------|------------|--------2--|
E|8-------------|-----------|------------|--1-3-5----|
                            * esta parte *
                            solo se toca 3
                                veces

  Cm7          Fm7          Cm7          Fm7
G|------------|---10-------|------------|---10-------|
D|------------|-10---------|----------5-|-10--10-----|
A|-3333-33335-|8----------2|-3333-3333-3|8-------8s--|
E|3----3-----3|-----1-3-5--|-----3------|------------|

  Cm7          Fm7          Cm7          Fm7
G|------------|---10-------|------------|---10-------|
D|------------|-10--10-----|------------|-10---------|
A|-3333-3333s-|8-------8s--|-3333-3333s-|8----------2|
E|-----3------|------------|-----3------|-----1-3-5--|

  Cm7          Fm7          Cm7
G|------------|---10-------|------------||
D|------------|-10---------|------------||
A|-3333-3333s-|8----------2|-3333-3333--||
E|-----3------|-----1-3-5--|-----3----3-||

  Fm7          Cm7          Fm7          Cm7
G|------------|------------|------------|------------|
D|------------|------------|------------|------------|
A|------------|-3333-3333--|------------|-3333-3333--|
E|1111-01111-3|-----3----3-|1111-01111-3|-----3----3-|
*.......... Repite todo esto hasta el final..........*


Dudas o comentarios y preguntas escribe a:laburka@yahoo.com.mx





Esta es una transcripcion personal de un usuario de www.letrasyacordes.net - El material contenido en esta pagina es para exclusivo uso privado, quedando prohibida su reproduccion o retransmision, asi como su uso con fines comerciales.


Letras y Acordes punto net, el mejor sitio para encontrar y compartir letras de canciones, con sus correspondientes acordes para guitarra y piano. No te olvides de votar para calificar la calidad de las letras
Palabras utilizadas para encontrar esta página:
Santana, Europa, letra y acordes de Europa de Santana, canciones de Santana, tocar con guitarra Europa, tocar con piano Europa, estudiar m├║sica
Ver más canciones de :

Santana


 
{c} 2016 - letrasyacordes.net