Letras y Acordes |  Acordes |  Afinador |  IMC |  num A B C D E F G H I J K L M N O P Q R S T U V W X Y Z 
 

 

Game of Love || Santana  

Links Patrocinados / Anuncios:

una_columnados_columnasaumentar_letrareducir_letravista_scrollver_impresionver_impresion_con_acordes | votar: +++++++--- | Puntaje actual: 7.86

Links Patrocinados

Links Patrocinados

calculadora de indice de masa corporal IMC

Links Patrocinados





|--------------------------10-10-10-10-10S12--|
|--------10-----10-12------------------------------|
|-9h11-----------------------------------------------|
|-------------------------------------------------------|
|-------------------------------------------------------|
|-------------------------------------------------------|


|-----------------------------------------------------------------------|
|11S12-11S12-10h12------------------------13-10s8s10-|
|------------------------------------9h11p9h11--12-------------|
|-----------------------------12--------------------------------------|
|----------------------------------------------------------------------|
|----------------------------------------------------------------------|

|--------10-10-10--10-10--12-12b14b12b14--|
|-/12-----------------------------------------------------|
|----------------------------------------------------------|
|----------------------------------------------------------|
|----------------------------------------------------------|
|----------------------------------------------------------|


|---12b14b12p10-12p10--12---------------------|
|----------------------------------------------------------|
|----------------------------------------------------------|
|----------------------------------------------------------|
|----------------------------------------------------------|
|----------------------------------------------------------|

Bm A
Tell me
    Bm
Just what you want
          A
me to be

Bm A
One kiss
And ooh
Bm   A
you're the only one for me

        Bm      A
So please tell me whyyyyy
D
You don't come around
E
No mooooore
                            Bm     C#m
Cuz right now I'm cryyyyin
D
Outside the door
E
Of your candy store

Bm
Cuz it just takes a little bit of this
   A
A little bit of that
 Bm
Start it with a kiss
          A
When we're up to bat
Bm
A little bit of lies
   A
A little bit of pain
      Bm
I'm tellin you my baby
    A
It's all in the game of...

Bm
Lovin
    A
Whatever you make it to be
Bm
Sunshine
A
Set on this cold lonely sea

        Bm      A
So please tell baby tryyyyy
D
And use me for what I'm
                 E
good for-or
                            Bm     C#m
Ain't saying goodbyyyyyye
D
Knockin' down the door
E
Of your candy store

Bm
Cuz it just takes a little bit of this
   A
A little bit of that
 Bm
Start it with a kiss
          A
When we're up to bat
Bm
A little bit of lies
   A
A little bit of pain
      Bm
I'm tellin you my baby
    A
It's all in the game of...
Bm A
Love
                Bm        A
It's all in the game of looooove

Bm
You roll me
C#
Contol me
D
Console me
E
Please hold me

Bm
You guide me
C#
Divide me
D EEEEEEE
Into whaattttttt





Esta es una transcripcion personal de un usuario de www.letrasyacordes.net - El material contenido en esta pagina es para exclusivo uso privado, quedando prohibida su reproduccion o retransmision, asi como su uso con fines comerciales.


Letras y Acordes punto net, el mejor sitio para encontrar y compartir letras de canciones, con sus correspondientes acordes para guitarra y piano. No te olvides de votar para calificar la calidad de las letras
Palabras utilizadas para encontrar esta página:
Santana, Game of Love, letra y acordes de Game of Love de Santana, canciones de Santana, tocar con guitarra Game of Love, tocar con piano Game of Love, estudiar música
Ver más canciones de :

Santana


 
{c} 2016 - letrasyacordes.net